0
SECTION
2
HEADER
9
$LTSCALE
40
10
9
$LIMMIN
10
0
20
0
9
$LIMMAX
10
12
20
9
9
$EXTMIN
10
0
20
0
9
$EXTMAX
10
202.8613
20
276.7787
9
$SNAPMODE
70
0
9
$SNAPUNIT
10
1
20
1
9
$GRIDMODE
70
0
9
$GRIDUNIT
10
0
20
0
9
$ORTHOMODE
70
0
9
$TEXTSTYLE
7
txt
9
$CLAYER
8
1
9
$CECOLOR
62
7
9
$CELTYPE
6
CONTINUOUS
9
$PLINEWID
40
0.2
9
$OSMODE
70
31
9
$FILLMODE
70
1
9
$CHAMFERA
40
0.5
9
$CHAMFERB
40
0.5
9
$COORDS
70
1
9
$FILLETRAD
40
0.5
9
$INSBASE
10
0
20
0
9
$SPLFRAME
70
0
9
$SPLINESEGS
70
8
0
ENDSEC
0
SECTION
2
TABLES
0
TABLE
2
LTYPE
70
9
0
LTYPE
2
DASHED
70
0
3
__ __ __ __ __ __ __ __ __ __ __ __ __ __ __
72
65
73
2
40
0.75
49
0.5
49
-0.25
0
LTYPE
2
HIDDEN
70
0
3
_ _ _ _ _ _ _ _ _ _ _ _ _ _ _ _ _ _ _ _ _ _ 
72
65
73
2
40
0.25
49
0.125
49
-0.125
0
LTYPE
2
CENTER
70
0
3
____ _ ____ _ ____ _ ____ _ ____ _ ____ _ __
72
65
73
4
40
2
49
1.25
49
-0.25
49
0.25
49
-0.25
0
LTYPE
2
PHANTOM
70
0
3
_____ _ _ _____ _ _ _____ _ _ _____ _ _ ____
72
65
73
6
40
2.5
49
1.25
49
-0.25
49
0.25
49
-0.25
49
0.25
49
-0.25
0
LTYPE
2
DOT
70
0
3
............................................
72
65
73
2
40
0.25
49
0
49
-0.25
0
LTYPE
2
DASHDOT
70
0
3
__ . __ . __ . __ . __ . __ . __ . __ . __ .
72
65
73
4
40
1
49
0.5
49
-0.25
49
0
49
-0.25
0
LTYPE
2
BORDER
70
0
3
__ __ . __ __ . __ __ . __ __ . __ __ . __ _
72
65
73
6
40
1.75
49
0.5
49
-0.25
49
0.5
49
-0.25
49
0
49
-0.25
0
LTYPE
2
DIVIDE
70
0
3
__ . . __ . . __ . . __ . . __ . . __ . . __
72
65
73
6
40
1.25
49
0.5
49
-0.25
49
0
49
-0.25
49
0
49
-0.25
0
LTYPE
2
DOTS
70
0
3
close
72
65
73
2
40
0.1
49
0.05
49
-0.05
0
ENDTAB
0
TABLE
2
STYLE
70
2
0
STYLE
2
ROMANC
70
0
40
0
41
1
50
0
71
0
42
0
3
ROMANC
4

0
STYLE
2
ROMANS
70
0
40
0
41
1
50
0
71
0
42
0
3
ROMANS
4

0
ENDTAB
0
TABLE
2
LAYER
70
10
0
LAYER
2
1
70
0
62
7
6
CONTINUOUS
0
LAYER
2
2
70
0
62
7
6
CONTINUOUS
0
LAYER
2
3
70
0
62
7
6
CONTINUOUS
0
LAYER
2
4
70
0
62
7
6
CONTINUOUS
0
LAYER
2
5
70
0
62
7
6
CONTINUOUS
0
LAYER
2
6
70
0
62
7
6
CONTINUOUS
0
LAYER
2
7
70
0
62
7
6
CONTINUOUS
0
LAYER
2
8
70
0
62
7
6
CONTINUOUS
0
LAYER
2
9
70
0
62
7
6
CONTINUOUS
0
LAYER
2
10
70
0
62
7
6
CONTINUOUS
0
ENDTAB
0
ENDSEC
0
SECTION
2
BLOCKS
0
BLOCK
8
0
2
IP-G1
70
0
10
0
20
0
0
ARC
8
1
62
7
10
101.7917
20
210.6061
40
0.5
50
180
51
360
0
LINE
8
1
62
7
10
101.7917
20
213.6061
11
102.2917
21
210.6061
0
LINE
8
1
62
7
10
101.2917
20
210.6061
11
101.7917
21
213.6061
0
ENDBLK
8
0
0
BLOCK
8
0
2
IP-G2
70
0
10
0
20
0
0
ARC
8
1
62
7
10
101.7917
20
203.6061
40
0.5
50
180
51
360
0
LINE
8
1
62
7
10
101.7917
20
206.6061
11
102.2917
21
203.6061
0
LINE
8
1
62
7
10
101.2917
20
203.6061
11
101.7917
21
206.6061
0
ENDBLK
8
0
0
BLOCK
8
0
2
IP-G3
70
0
10
0
20
0
0
ARC
8
1
62
7
10
101.195
20
150.1534
40
0.5
50
135
51
315
0
LINE
8
1
62
7
10
103.3164
20
152.2747
11
101.5486
21
149.7998
0
LINE
8
1
62
7
10
100.8415
20
150.5069
11
103.3164
21
152.2747
0
ENDBLK
8
0
0
BLOCK
8
0
2
IP-G4
70
0
10
0
20
0
0
ARC
8
1
62
7
10
100.7074
20
135.8634
40
0.5
50
41.09089
51
221.0909
0
LINE
8
1
62
7
10
102.6791
20
133.6024
11
101.0842
21
136.192
0
LINE
8
1
62
7
10
100.3305
20
135.5348
11
102.6791
21
133.6024
0
ENDBLK
8
0
0
BLOCK
8
0
2
IP-G5
70
0
10
0
20
0
0
ARC
8
1
62
7
10
101.3284
20
143.1333
40
0.5
50
89.99999
51
270
0
LINE
8
1
62
7
10
104.3284
20
143.1333
11
101.3284
21
142.6333
0
LINE
8
1
62
7
10
101.3284
20
143.6333
11
104.3284
21
143.1333
0
ENDBLK
8
0
0
BLOCK
8
0
2
IP-G6
70
0
10
0
20
0
0
ARC
8
1
62
7
10
101.195
20
170.1534
40
0.5
50
135
51
315
0
LINE
8
1
62
7
10
103.3164
20
172.2747
11
101.5486
21
169.7998
0
LINE
8
1
62
7
10
100.8415
20
170.5069
11
103.3164
21
172.2747
0
ENDBLK
8
0
0
BLOCK
8
0
2
IP-G7
70
0
10
0
20
0
0
LINE
8
1
62
7
10
103.5
20
71.72733
11
102
21
71.72733
0
LINE
8
1
62
7
10
100.5
20
71.72733
11
100.5
21
71.72733
0
LINE
8
1
62
7
10
99
20
71.72733
11
99
21
71.72733
0
LINE
8
1
62
7
10
97.5
20
71.72733
11
96
21
71.72733
0
LINE
8
1
62
7
10
94.5
20
71.72733
11
94.5
21
71.72733
0
LINE
8
1
62
7
10
94.20193
20
70.48338
11
94.5
21
70.48338
0
LINE
8
1
62
7
10
96
20
70.48338
11
96
21
70.48338
0
LINE
8
1
62
7
10
97.5
20
70.48338
11
97.5
21
70.48338
0
LINE
8
1
62
7
10
99
20
70.48338
11
100.5
21
70.48338
0
LINE
8
1
62
7
10
102
20
70.48338
11
102
21
70.48338
0
LINE
8
1
62
7
10
103.5
20
70.48338
11
103.5
21
70.48338
0
LINE
8
1
62
7
10
103.5
20
68.61745
11
102
21
68.61745
0
LINE
8
1
62
7
10
100.5
20
68.61745
11
100.5
21
68.61745
0
LINE
8
1
62
7
10
99
20
68.61745
11
99
21
68.61745
0
LINE
8
1
62
7
10
97.5
20
68.61745
11
96
21
68.61745
0
LINE
8
1
62
7
10
94.5
20
68.61745
11
94.5
21
68.61745
0
LINE
8
1
62
7
10
99
20
67.3735
11
100.5
21
67.3735
0
LINE
8
1
62
7
10
102
20
67.3735
11
102
21
67.3735
0
LINE
8
1
62
7
10
103.5
20
67.3735
11
103.5
21
67.3735
0
LINE
8
1
62
7
10
103.5
20
65.50758
11
102
21
65.50758
0
LINE
8
1
62
7
10
100.5
20
65.50758
11
100.5
21
65.50758
0
LINE
8
1
62
7
10
99
20
65.50758
11
99
21
65.50758
0
LINE
8
1
62
7
10
99
20
64.26363
11
100.5
21
64.26363
0
LINE
8
1
62
7
10
102
20
64.26363
11
102
21
64.26363
0
LINE
8
1
62
7
10
103.5
20
64.26363
11
103.5
21
64.26363
0
LINE
8
1
62
7
10
103.5
20
63.01968
11
102
21
63.01968
0
LINE
8
1
62
7
10
100.5
20
63.01968
11
100.5
21
63.01968
0
LINE
8
1
62
7
10
99
20
63.01968
11
99
21
63.01968
0
LINE
8
1
62
7
10
99
20
61.15376
11
100.5
21
61.15376
0
LINE
8
1
62
7
10
102
20
61.15376
11
102
21
61.15376
0
LINE
8
1
62
7
10
103.5
20
61.15376
11
103.5
21
61.15376
0
LINE
8
1
62
7
10
103.5
20
59.90981
11
102
21
59.90981
0
LINE
8
1
62
7
10
100.5
20
59.90981
11
100.5
21
59.90981
0
LINE
8
1
62
7
10
99
20
59.90981
11
99
21
59.90981
0
LINE
8
1
62
7
10
94.20193
20
58.04388
11
94.5
21
58.04388
0
LINE
8
1
62
7
10
96
20
58.04388
11
96
21
58.04388
0
LINE
8
1
62
7
10
97.5
20
58.04388
11
97.5
21
58.04388
0
LINE
8
1
62
7
10
99
20
58.04388
11
100.5
21
58.04388
0
LINE
8
1
62
7
10
102
20
58.04388
11
102
21
58.04388
0
LINE
8
1
62
7
10
103.5
20
58.04388
11
103.5
21
58.04388
0
LINE
8
1
62
7
10
103.5
20
56.79993
11
102
21
56.79993
0
LINE
8
1
62
7
10
100.5
20
56.79993
11
100.5
21
56.79993
0
LINE
8
1
62
7
10
99
20
56.79993
11
99
21
56.79993
0
LINE
8
1
62
7
10
97.5
20
56.79993
11
96
21
56.79993
0
LINE
8
1
62
7
10
94.5
20
56.79993
11
94.5
21
56.79993
0
LINE
8
1
62
7
10
94.20193
20
54.93401
11
94.5
21
54.93401
0
LINE
8
1
62
7
10
96
20
54.93401
11
96
21
54.93401
0
LINE
8
1
62
7
10
97.5
20
54.93401
11
97.5
21
54.93401
0
LINE
8
1
62
7
10
99
20
54.93401
11
100.5
21
54.93401
0
LINE
8
1
62
7
10
102
20
54.93401
11
102
21
54.93401
0
LINE
8
1
62
7
10
103.5
20
54.93401
11
103.5
21
54.93401
0
LINE
8
1
62
7
10
103.5
20
53.69006
11
102
21
53.69006
0
LINE
8
1
62
7
10
100.5
20
53.69006
11
100.5
21
53.69006
0
LINE
8
1
62
7
10
99
20
53.69006
11
99
21
53.69006
0
LINE
8
1
62
7
10
97.5
20
53.69006
11
96
21
53.69006
0
LINE
8
1
62
7
10
94.5
20
53.69006
11
94.5
21
53.69006
0
ENDBLK
8
0
0
BLOCK
8
0
2
IP-G8
70
0
10
0
20
0
0
LINE
8
1
62
7
10
103.5
20
89.8735
11
102
21
89.8735
0
LINE
8
1
62
7
10
100.5
20
89.8735
11
100.5
21
89.8735
0
LINE
8
1
62
7
10
99
20
89.8735
11
99
21
89.8735
0
LINE
8
1
62
7
10
97.5
20
89.8735
11
96
21
89.8735
0
LINE
8
1
62
7
10
94.5
20
89.8735
11
94.5
21
89.8735
0
LINE
8
1
62
7
10
94.20193
20
88.62955
11
94.5
21
88.62955
0
LINE
8
1
62
7
10
96
20
88.62955
11
96
21
88.62955
0
LINE
8
1
62
7
10
97.5
20
88.62955
11
97.5
21
88.62955
0
LINE
8
1
62
7
10
99
20
88.62955
11
100.5
21
88.62955
0
LINE
8
1
62
7
10
102
20
88.62955
11
102
21
88.62955
0
LINE
8
1
62
7
10
103.5
20
88.62955
11
103.5
21
88.62955
0
LINE
8
1
62
7
10
103.5
20
86.76363
11
102
21
86.76363
0
LINE
8
1
62
7
10
100.5
20
86.76363
11
100.5
21
86.76363
0
LINE
8
1
62
7
10
99
20
86.76363
11
99
21
86.76363
0
LINE
8
1
62
7
10
99
20
85.51968
11
100.5
21
85.51968
0
LINE
8
1
62
7
10
102
20
85.51968
11
102
21
85.51968
0
LINE
8
1
62
7
10
103.5
20
85.51968
11
103.5
21
85.51968
0
LINE
8
1
62
7
10
103.5
20
83.65376
11
102
21
83.65376
0
LINE
8
1
62
7
10
100.5
20
83.65376
11
100.5
21
83.65376
0
LINE
8
1
62
7
10
99
20
83.65376
11
99
21
83.65376
0
LINE
8
1
62
7
10
99
20
82.40981
11
100.5
21
82.40981
0
LINE
8
1
62
7
10
102
20
82.40981
11
102
21
82.40981
0
LINE
8
1
62
7
10
103.5
20
82.40981
11
103.5
21
82.40981
0
LINE
8
1
62
7
10
103.5
20
81.16586
11
102
21
81.16586
0
LINE
8
1
62
7
10
100.5
20
81.16586
11
100.5
21
81.16586
0
LINE
8
1
62
7
10
99
20
81.16586
11
99
21
81.16586
0
LINE
8
1
62
7
10
99
20
79.29993
11
100.5
21
79.29993
0
LINE
8
1
62
7
10
102
20
79.29993
11
102
21
79.29993
0
LINE
8
1
62
7
10
103.5
20
79.29993
11
103.5
21
79.29993
0
LINE
8
1
62
7
10
103.5
20
78.05598
11
102
21
78.05598
0
LINE
8
1
62
7
10
100.5
20
78.05598
11
100.5
21
78.05598
0
LINE
8
1
62
7
10
99
20
78.05598
11
99
21
78.05598
0
LINE
8
1
62
7
10
97.5
20
78.05598
11
96
21
78.05598
0
LINE
8
1
62
7
10
94.5
20
78.05598
11
94.5
21
78.05598
0
LINE
8
1
62
7
10
94.20193
20
76.19006
11
94.5
21
76.19006
0
LINE
8
1
62
7
10
96
20
76.19006
11
96
21
76.19006
0
LINE
8
1
62
7
10
97.5
20
76.19006
11
97.5
21
76.19006
0
LINE
8
1
62
7
10
99
20
76.19006
11
100.5
21
76.19006
0
LINE
8
1
62
7
10
102
20
76.19006
11
102
21
76.19006
0
LINE
8
1
62
7
10
103.5
20
76.19006
11
103.5
21
76.19006
0
ENDBLK
8
0
0
BLOCK
8
0
2
IP-G9
70
0
10
0
20
0
0
LINE
8
1
62
7
10
103.5
20
100.5439
11
103.5
21
100.5439
0
LINE
8
1
62
7
10
102
20
100.5439
11
102
21
100.5439
0
LINE
8
1
62
7
10
100.5
20
100.5439
11
99
21
100.5439
0
LINE
8
1
62
7
10
99
20
99.29993
11
99
21
99.29993
0
LINE
8
1
62
7
10
100.5
20
99.29993
11
100.5
21
99.29993
0
LINE
8
1
62
7
10
102
20
99.29993
11
103.5
21
99.29993
0
LINE
8
1
62
7
10
103.5
20
97.43401
11
103.5
21
97.43401
0
LINE
8
1
62
7
10
102
20
97.43401
11
102
21
97.43401
0
LINE
8
1
62
7
10
100.5
20
97.43401
11
99
21
97.43401
0
LINE
8
1
62
7
10
97.5
20
97.43401
11
97.5
21
97.43401
0
LINE
8
1
62
7
10
96
20
97.43401
11
96
21
97.43401
0
LINE
8
1
62
7
10
94.5
20
97.43401
11
94.20193
21
97.43401
0
LINE
8
1
62
7
10
94.5
20
96.19006
11
94.5
21
96.19006
0
LINE
8
1
62
7
10
96
20
96.19006
11
97.5
21
96.19006
0
LINE
8
1
62
7
10
99
20
96.19006
11
99
21
96.19006
0
LINE
8
1
62
7
10
100.5
20
96.19006
11
100.5
21
96.19006
0
LINE
8
1
62
7
10
102
20
96.19006
11
103.5
21
96.19006
0
ENDBLK
8
0
0
BLOCK
8
0
2
IP-G10
70
0
10
0
20
0
0
LINE
8
1
62
7
10
36.00096
20
110.1491
11
36.00096
21
110.1491
0
LINE
8
1
62
7
10
34.71176
20
109.1599
11
34.71176
21
109.1599
0
LINE
8
1
62
7
10
37.45182
20
108.9104
11
37.45182
21
108.9104
0
LINE
8
1
62
7
10
38.80053
20
109.9453
11
38.80053
21
109.9453
0
LINE
8
1
62
7
10
41.16195
20
110.1893
11
41.16195
21
110.1893
0
LINE
8
1
62
7
10
39.95606
20
109.264
11
39.95606
21
109.264
0
LINE
8
1
62
7
10
38.66686
20
108.2748
11
38.66686
21
108.2748
0
LINE
8
1
62
7
10
40.20102
20
107.1001
11
40.20102
21
107.1001
0
LINE
8
1
62
7
10
41.27325
20
106.3548
11
41.27325
21
106.3548
0
LINE
8
1
62
7
10
40.06736
20
105.4295
11
40.06736
21
105.4295
0
LINE
8
1
62
7
10
40.31232
20
103.2655
11
40.31232
21
103.2655
0
LINE
8
1
62
7
10
40.17866
20
101.595
11
40.17866
21
101.595
0
LINE
8
1
62
7
10
35.04566
20
97.65633
11
35.04566
21
97.65633
0
LINE
8
1
62
7
10
36.57983
20
96.4816
11
36.57983
21
96.4816
0
LINE
8
1
62
7
10
37.78572
20
97.40691
11
37.78572
21
97.40691
0
LINE
8
1
62
7
10
40.42362
20
99.43105
11
40.42362
21
99.43105
0
LINE
8
1
62
7
10
40.28996
20
97.76051
11
40.28996
21
97.76051
0
LINE
8
1
62
7
10
39.00076
20
96.77128
11
39.00076
21
96.77128
0
LINE
8
1
62
7
10
37.65205
20
95.73638
11
37.65205
21
95.73638
0
LINE
8
1
62
7
10
40.64617
20
109.0322
11
40.64617
21
109.0322
0
LINE
8
1
62
7
10
39.28789
20
108.8534
11
39.28789
21
108.8534
0
LINE
8
1
62
7
10
38.47491
20
108.7464
11
38.47491
21
108.7464
0
LINE
8
1
62
7
10
37.9544
20
108.6779
11
37.9544
21
108.6779
0
LINE
8
1
62
7
10
36.59612
20
108.499
11
36.59612
21
108.499
0
LINE
8
1
62
7
10
35.78313
20
108.392
11
35.78313
21
108.392
0
LINE
8
1
62
7
10
35.26262
20
108.3235
11
35.26262
21
108.3235
0
LINE
8
1
62
7
10
38.86607
20
106.2885
11
38.86607
21
106.2885
0
LINE
8
1
62
7
10
39.38658
20
106.357
11
39.38658
21
106.357
0
LINE
8
1
62
7
10
40.19956
20
106.4641
11
40.19956
21
106.4641
0
LINE
8
1
62
7
10
41.11123
20
104.0747
11
41.11123
21
104.0747
0
LINE
8
1
62
7
10
40.29825
20
103.9677
11
40.29825
21
103.9677
0
LINE
8
1
62
7
10
39.77774
20
103.8992
11
39.77774
21
103.8992
0
LINE
8
1
62
7
10
38.51815
20
101.224
11
38.51815
21
101.224
0
LINE
8
1
62
7
10
39.33113
20
101.331
11
39.33113
21
101.331
0
LINE
8
1
62
7
10
40.68941
20
101.5098
11
40.68941
21
101.5098
0
LINE
8
1
62
7
10
40.32399
20
98.32502
11
40.32399
21
98.32502
0
LINE
8
1
62
7
10
39.511
20
98.21799
11
39.511
21
98.21799
0
LINE
8
1
62
7
10
38.99049
20
98.14946
11
38.99049
21
98.14946
0
LINE
8
1
62
7
10
37.63221
20
97.97064
11
37.63221
21
97.97064
0
LINE
8
1
62
7
10
36.81923
20
97.86361
11
36.81923
21
97.86361
0
LINE
8
1
62
7
10
36.29872
20
97.79508
11
36.29872
21
97.79508
0
LINE
8
1
62
7
10
34.94044
20
97.61626
11
34.94044
21
97.61626
0
LINE
8
1
62
7
10
40.88618
20
110.0053
11
40.88618
21
110.0053
0
LINE
8
1
62
7
10
37.67107
20
109.8412
11
37.67107
21
109.8412
0
LINE
8
1
62
7
10
38.09276
20
109.5725
11
38.09276
21
109.5725
0
LINE
8
1
62
7
10
39.61087
20
108.6054
11
39.61087
21
108.6054
0
LINE
8
1
62
7
10
40.65171
20
106.4674
11
40.65171
21
106.4674
0
LINE
8
1
62
7
10
39.13361
20
107.4345
11
39.13361
21
107.4345
0
LINE
8
1
62
7
10
36.72994
20
108.9658
11
36.72994
21
108.9658
0
LINE
8
1
62
7
10
35.21184
20
109.933
11
35.21184
21
109.933
0
LINE
8
1
62
7
10
39.41857
20
105.0406
11
39.41857
21
105.0406
0
LINE
8
1
62
7
10
39.84026
20
104.7719
11
39.84026
21
104.7719
0
LINE
8
1
62
7
10
40.54692
20
102.1093
11
40.54692
21
102.1093
0
LINE
8
1
62
7
10
40.12523
20
102.378
11
40.12523
21
102.378
0
LINE
8
1
62
7
10
39.1841
20
101.5026
11
39.1841
21
101.5026
0
LINE
8
1
62
7
10
41.16607
20
100.2399
11
41.16607
21
100.2399
0
LINE
8
1
62
7
10
39.89075
20
98.84
11
39.89075
21
98.84
0
LINE
8
1
62
7
10
38.65761
20
97.41319
11
38.65761
21
97.41319
0
LINE
8
1
62
7
10
39.07931
20
97.14455
11
39.07931
21
97.14455
0
LINE
8
1
62
7
10
40.59741
20
96.17741
11
40.59741
21
96.17741
0
LINE
8
1
62
7
10
35.86419
20
96.98039
11
35.86419
21
96.98039
0
LINE
8
1
62
7
10
35.4425
20
97.24904
11
35.4425
21
97.24904
0
LINE
8
1
62
7
10
41.15112
20
110.2107
11
41.15112
21
110.2107
0
LINE
8
1
62
7
10
37.21912
20
110.4392
11
37.21912
21
110.4392
0
LINE
8
1
62
7
10
37.40343
20
110.2703
11
37.40343
21
110.2703
0
LINE
8
1
62
7
10
38.27342
20
109.4731
11
38.27342
21
109.4731
0
LINE
8
1
62
7
10
39.26875
20
108.5611
11
39.26875
21
108.5611
0
LINE
8
1
62
7
10
39.45307
20
108.3922
11
39.45307
21
108.3922
0
LINE
8
1
62
7
10
40.32306
20
107.595
11
40.32306
21
107.595
0
LINE
8
1
62
7
10
41.31838
20
106.6829
11
41.31838
21
106.6829
0
LINE
8
1
62
7
10
41.5027
20
106.5141
11
41.5027
21
106.5141
0
LINE
8
1
62
7
10
41.12442
20
102.6426
11
41.12442
21
102.6426
0
LINE
8
1
62
7
10
40.25443
20
103.4398
11
40.25443
21
103.4398
0
LINE
8
1
62
7
10
40.07011
20
103.6087
11
40.07011
21
103.6087
0
LINE
8
1
62
7
10
39.07479
20
104.5208
11
39.07479
21
104.5208
0
LINE
8
1
62
7
10
34.97553
20
108.277
11
34.97553
21
108.277
0
LINE
8
1
62
7
10
39.24205
20
100.9931
11
39.24205
21
100.9931
0
LINE
8
1
62
7
10
39.42637
20
100.8242
11
39.42637
21
100.8242
0
LINE
8
1
62
7
10
40.29636
20
100.027
11
40.29636
21
100.027
0
LINE
8
1
62
7
10
41.51792
20
95.53316
11
41.51792
21
95.53316
0
LINE
8
1
62
7
10
40.64793
20
96.33037
11
40.64793
21
96.33037
0
LINE
8
1
62
7
10
40.46362
20
96.49926
11
40.46362
21
96.49926
0
LINE
8
1
62
7
10
39.46829
20
97.41131
11
39.46829
21
97.41131
0
LINE
8
1
62
7
10
34.12076
20
98.09336
11
34.12076
21
98.09336
0
LINE
8
1
62
7
10
35.11609
20
97.18132
11
35.11609
21
97.18132
0
LINE
8
1
62
7
10
35.30041
20
97.01242
11
35.30041
21
97.01242
0
LINE
8
1
62
7
10
36.17039
20
96.21523
11
36.17039
21
96.21523
0
ENDBLK
8
0
0
BLOCK
8
0
2
IP-G11
70
0
10
0
20
0
0
LINE
8
1
62
7
10
28.20675
20
109.9233
11
28.20675
21
109.9233
0
LINE
8
1
62
7
10
26.91755
20
108.9341
11
26.91755
21
108.9341
0
LINE
8
1
62
7
10
27.16251
20
106.7701
11
27.16251
21
106.7701
0
LINE
8
1
62
7
10
28.45171
20
107.7594
11
28.45171
21
107.7594
0
LINE
8
1
62
7
10
29.65761
20
108.6847
11
29.65761
21
108.6847
0
LINE
8
1
62
7
10
31.00631
20
109.7196
11
31.00631
21
109.7196
0
LINE
8
1
62
7
10
33.36774
20
109.9636
11
33.36774
21
109.9636
0
LINE
8
1
62
7
10
32.16184
20
109.0383
11
32.16184
21
109.0383
0
LINE
8
1
62
7
10
28.31804
20
106.0888
11
28.31804
21
106.0888
0
LINE
8
1
62
7
10
27.02885
20
105.0996
11
27.02885
21
105.0996
0
LINE
8
1
62
7
10
27.27381
20
102.9356
11
27.27381
21
102.9356
0
LINE
8
1
62
7
10
28.56301
20
103.9249
11
28.56301
21
103.9249
0
LINE
8
1
62
7
10
28.74431
20
102.496
11
28.74431
21
102.496
0
LINE
8
1
62
7
10
27.53841
20
101.5707
11
27.53841
21
101.5707
0
LINE
8
1
62
7
10
27.78337
20
99.4067
11
27.78337
21
99.4067
0
LINE
8
1
62
7
10
28.98927
20
100.332
11
28.98927
21
100.332
0
LINE
8
1
62
7
10
28.8556
20
98.66149
11
28.8556
21
98.66149
0
LINE
8
1
62
7
10
27.64971
20
97.73618
11
27.64971
21
97.73618
0
LINE
8
1
62
7
10
29.10057
20
96.49751
11
29.10057
21
96.49751
0
LINE
8
1
62
7
10
30.44927
20
97.53241
11
30.44927
21
97.53241
0
LINE
8
1
62
7
10
32.8107
20
97.77644
11
32.8107
21
97.77644
0
LINE
8
1
62
7
10
31.6048
20
96.85111
11
31.6048
21
96.85111
0
LINE
8
1
62
7
10
30.31561
20
95.86188
11
30.31561
21
95.86188
0
LINE
8
1
62
7
10
29.44132
20
110.4265
11
29.44132
21
110.4265
0
LINE
8
1
62
7
10
28.92081
20
110.358
11
28.92081
21
110.358
0
LINE
8
1
62
7
10
27.56253
20
110.1792
11
27.56253
21
110.1792
0
LINE
8
1
62
7
10
26.74955
20
110.0721
11
26.74955
21
110.0721
0
LINE
8
1
62
7
10
26.22904
20
110.0036
11
26.22904
21
110.0036
0
LINE
8
1
62
7
10
27.14071
20
107.6143
11
27.14071
21
107.6143
0
LINE
8
1
62
7
10
27.66122
20
107.6828
11
27.66122
21
107.6828
0
LINE
8
1
62
7
10
28.47421
20
107.7898
11
28.47421
21
107.7898
0
LINE
8
1
62
7
10
29.83249
20
107.9687
11
29.83249
21
107.9687
0
LINE
8
1
62
7
10
30.35299
20
108.0372
11
30.35299
21
108.0372
0
LINE
8
1
62
7
10
31.16598
20
108.1442
11
31.16598
21
108.1442
0
LINE
8
1
62
7
10
32.52426
20
108.323
11
32.52426
21
108.323
0
LINE
8
1
62
7
10
33.04477
20
108.3916
11
33.04477
21
108.3916
0
LINE
8
1
62
7
10
33.85775
20
108.4986
11
33.85775
21
108.4986
0
LINE
8
1
62
7
10
28.57289
20
105.2934
11
28.57289
21
105.2934
0
LINE
8
1
62
7
10
28.05238
20
105.2249
11
28.05238
21
105.2249
0
LINE
8
1
62
7
10
26.6941
20
105.0461
11
26.6941
21
105.0461
0
LINE
8
1
62
7
10
26.79279
20
102.5497
11
26.79279
21
102.5497
0
LINE
8
1
62
7
10
27.60577
20
102.6568
11
27.60577
21
102.6568
0
LINE
8
1
62
7
10
28.96405
20
102.8356
11
28.96405
21
102.8356
0
LINE
8
1
62
7
10
28.59863
20
99.65076
11
28.59863
21
99.65076
0
LINE
8
1
62
7
10
27.78564
20
99.54373
11
27.78564
21
99.54373
0
LINE
8
1
62
7
10
27.26514
20
99.47521
11
27.26514
21
99.47521
0
LINE
8
1
62
7
10
28.17681
20
97.08587
11
28.17681
21
97.08587
0
LINE
8
1
62
7
10
28.69732
20
97.1544
11
28.69732
21
97.1544
0
LINE
8
1
62
7
10
29.5103
20
97.26142
11
29.5103
21
97.26142
0
LINE
8
1
62
7
10
30.86858
20
97.44025
11
30.86858
21
97.44025
0
LINE
8
1
62
7
10
31.38909
20
97.50877
11
31.38909
21
97.50877
0
LINE
8
1
62
7
10
32.20208
20
97.6158
11
32.20208
21
97.6158
0
LINE
8
1
62
7
10
33.56035
20
97.79462
11
33.56035
21
97.79462
0
LINE
8
1
62
7
10
34.08086
20
97.86315
11
34.08086
21
97.86315
0
LINE
8
1
62
7
10
33.68895
20
109.075
11
33.68895
21
109.075
0
LINE
8
1
62
7
10
32.17085
20
110.0421
11
32.17085
21
110.0421
0
LINE
8
1
62
7
10
31.74915
20
110.3108
11
31.74915
21
110.3108
0
LINE
8
1
62
7
10
28.53404
20
110.1466
11
28.53404
21
110.1466
0
LINE
8
1
62
7
10
28.95574
20
109.878
11
28.95574
21
109.878
0
LINE
8
1
62
7
10
30.47384
20
108.9108
11
30.47384
21
108.9108
0
LINE
8
1
62
7
10
27.59291
20
109.2712
11
27.59291
21
109.2712
0
LINE
8
1
62
7
10
28.29957
20
106.6087
11
28.29957
21
106.6087
0
LINE
8
1
62
7
10
27.48812
20
104.9132
11
27.48812
21
104.9132
0
LINE
8
1
62
7
10
28.10727
20
103.0438
11
28.10727
21
103.0438
0
LINE
8
1
62
7
10
28.52897
20
102.7752
11
28.52897
21
102.7752
0
LINE
8
1
62
7
10
33.15739
20
97.61413
11
33.15739
21
97.61413
0
LINE
8
1
62
7
10
32.7357
20
97.88278
11
32.7357
21
97.88278
0
LINE
8
1
62
7
10
28.81393
20
100.3812
11
28.81393
21
100.3812
0
LINE
8
1
62
7
10
26.83196
20
101.6439
11
26.83196
21
101.6439
0
LINE
8
1
62
7
10
27.53861
20
98.98128
11
27.53861
21
98.98128
0
LINE
8
1
62
7
10
29.52058
20
97.71863
11
29.52058
21
97.71863
0
LINE
8
1
62
7
10
29.94228
20
97.44997
11
29.94228
21
97.44997
0
LINE
8
1
62
7
10
31.46038
20
96.48283
11
31.46038
21
96.48283
0
LINE
8
1
62
7
10
34.04397
20
109.0071
11
34.04397
21
109.0071
0
LINE
8
1
62
7
10
33.85965
20
109.176
11
33.85965
21
109.176
0
LINE
8
1
62
7
10
32.86433
20
110.088
11
32.86433
21
110.088
0
LINE
8
1
62
7
10
28.93233
20
110.3166
11
28.93233
21
110.3166
0
LINE
8
1
62
7
10
29.11665
20
110.1477
11
29.11665
21
110.1477
0
LINE
8
1
62
7
10
29.98663
20
109.3505
11
29.98663
21
109.3505
0
LINE
8
1
62
7
10
30.98196
20
108.4384
11
30.98196
21
108.4384
0
LINE
8
1
62
7
10
31.16628
20
108.2695
11
31.16628
21
108.2695
0
LINE
8
1
62
7
10
28.73837
20
106.2763
11
28.73837
21
106.2763
0
LINE
8
1
62
7
10
27.86838
20
107.0735
11
27.86838
21
107.0735
0
LINE
8
1
62
7
10
27.68406
20
107.2424
11
27.68406
21
107.2424
0
LINE
8
1
62
7
10
26.856
20
104.6267
11
26.856
21
104.6267
0
LINE
8
1
62
7
10
27.04032
20
104.4578
11
27.04032
21
104.4578
0
LINE
8
1
62
7
10
27.9103
20
103.6606
11
27.9103
21
103.6606
0
LINE
8
1
62
7
10
28.90563
20
102.7486
11
28.90563
21
102.7486
0
LINE
8
1
62
7
10
29.08995
20
102.5797
11
29.08995
21
102.5797
0
LINE
8
1
62
7
10
32.03424
20
96.50727
11
32.03424
21
96.50727
0
LINE
8
1
62
7
10
31.16425
20
97.30447
11
31.16425
21
97.30447
0
LINE
8
1
62
7
10
30.97993
20
97.47337
11
30.97993
21
97.47337
0
LINE
8
1
62
7
10
29.11462
20
99.18261
11
29.11462
21
99.18261
0
LINE
8
1
62
7
10
28.9303
20
99.35151
11
28.9303
21
99.35151
0
LINE
8
1
62
7
10
27.93497
20
100.2635
11
27.93497
21
100.2635
0
LINE
8
1
62
7
10
27.68203
20
96.27728
11
27.68203
21
96.27728
0
LINE
8
1
62
7
10
27.86635
20
96.10838
11
27.86635
21
96.10838
0
ENDBLK
8
0
0
BLOCK
8
0
2
IP-G12
70
0
10
0
20
0
0
LINE
8
1
62
7
10
28.66274
20
130.2732
11
28.66274
21
130.2732
0
LINE
8
1
62
7
10
27.45685
20
129.3479
11
27.45685
21
129.3479
0
LINE
8
1
62
7
10
27.70181
20
127.1839
11
27.70181
21
127.1839
0
LINE
8
1
62
7
10
28.90771
20
128.1093
11
28.90771
21
128.1093
0
LINE
8
1
62
7
10
30.25641
20
129.1441
11
30.25641
21
129.1441
0
LINE
8
1
62
7
10
31.54561
20
130.1334
11
31.54561
21
130.1334
0
LINE
8
1
62
7
10
33.96654
20
130.4231
11
33.96654
21
130.4231
0
LINE
8
1
62
7
10
32.61784
20
129.3882
11
32.61784
21
129.3882
0
LINE
8
1
62
7
10
31.41194
20
128.4629
11
31.41194
21
128.4629
0
LINE
8
1
62
7
10
28.77404
20
126.4387
11
28.77404
21
126.4387
0
LINE
8
1
62
7
10
27.56815
20
125.5134
11
27.56815
21
125.5134
0
LINE
8
1
62
7
10
27.81311
20
123.3494
11
27.81311
21
123.3494
0
LINE
8
1
62
7
10
29.01901
20
124.2747
11
29.01901
21
124.2747
0
LINE
8
1
62
7
10
27.99441
20
121.9206
11
27.99441
21
121.9206
0
LINE
8
1
62
7
10
26.78851
20
120.9953
11
26.78851
21
120.9953
0
LINE
8
1
62
7
10
27.03348
20
118.8313
11
27.03348
21
118.8313
0
LINE
8
1
62
7
10
28.23937
20
119.7566
11
28.23937
21
119.7566
0
LINE
8
1
62
7
10
28.10571
20
118.0861
11
28.10571
21
118.0861
0
LINE
8
1
62
7
10
26.89981
20
117.1608
11
26.89981
21
117.1608
0
LINE
8
1
62
7
10
28.35067
20
115.9221
11
28.35067
21
115.9221
0
LINE
8
1
62
7
10
29.69937
20
116.957
11
29.69937
21
116.957
0
LINE
8
1
62
7
10
30.98857
20
117.9462
11
30.98857
21
117.9462
0
LINE
8
1
62
7
10
32.0608
20
117.201
11
32.0608
21
117.201
0
LINE
8
1
62
7
10
30.8549
20
116.2757
11
30.8549
21
116.2757
0
LINE
8
1
62
7
10
26.49289
20
128.1563
11
26.49289
21
128.1563
0
LINE
8
1
62
7
10
27.85117
20
128.3351
11
27.85117
21
128.3351
0
LINE
8
1
62
7
10
28.37168
20
128.4037
11
28.37168
21
128.4037
0
LINE
8
1
62
7
10
29.18467
20
128.5107
11
29.18467
21
128.5107
0
LINE
8
1
62
7
10
30.54295
20
128.6895
11
30.54295
21
128.6895
0
LINE
8
1
62
7
10
31.06345
20
128.7581
11
31.06345
21
128.7581
0
LINE
8
1
62
7
10
31.87644
20
128.8651
11
31.87644
21
128.8651
0
LINE
8
1
62
7
10
33.23472
20
129.0439
11
33.23472
21
129.0439
0
LINE
8
1
62
7
10
33.75523
20
129.1124
11
33.75523
21
129.1124
0
LINE
8
1
62
7
10
28.76284
20
125.9458
11
28.76284
21
125.9458
0
LINE
8
1
62
7
10
27.40456
20
125.767
11
27.40456
21
125.767
0
LINE
8
1
62
7
10
26.59158
20
125.66
11
26.59158
21
125.66
0
LINE
8
1
62
7
10
26.98274
20
123.2021
11
26.98274
21
123.2021
0
LINE
8
1
62
7
10
27.50325
20
123.2706
11
27.50325
21
123.2706
0
LINE
8
1
62
7
10
28.31624
20
123.3776
11
28.31624
21
123.3776
0
LINE
8
1
62
7
10
28.49611
20
120.2646
11
28.49611
21
120.2646
0
LINE
8
1
62
7
10
27.9756
20
120.1961
11
27.9756
21
120.1961
0
LINE
8
1
62
7
10
27.52899
20
117.6279
11
27.52899
21
117.6279
0
LINE
8
1
62
7
10
28.88727
20
117.8067
11
28.88727
21
117.8067
0
LINE
8
1
62
7
10
33.16921
20
128.6686
11
33.16921
21
128.6686
0
LINE
8
1
62
7
10
31.65111
20
129.6358
11
31.65111
21
129.6358
0
LINE
8
1
62
7
10
31.22941
20
129.9044
11
31.22941
21
129.9044
0
LINE
8
1
62
7
10
28.0143
20
129.7403
11
28.0143
21
129.7403
0
LINE
8
1
62
7
10
28.436
20
129.4716
11
28.436
21
129.4716
0
LINE
8
1
62
7
10
29.9541
20
128.5045
11
29.9541
21
128.5045
0
LINE
8
1
62
7
10
27.77983
20
126.2023
11
27.77983
21
126.2023
0
LINE
8
1
62
7
10
28.48649
20
123.5397
11
28.48649
21
123.5397
0
LINE
8
1
62
7
10
26.96838
20
124.5068
11
26.96838
21
124.5068
0
LINE
8
1
62
7
10
27.58753
20
122.6375
11
27.58753
21
122.6375
0
LINE
8
1
62
7
10
28.00923
20
122.3688
11
28.00923
21
122.3688
0
LINE
8
1
62
7
10
32.63765
20
117.2078
11
32.63765
21
117.2078
0
LINE
8
1
62
7
10
32.21596
20
117.4764
11
32.21596
21
117.4764
0
LINE
8
1
62
7
10
28.29419
20
119.9749
11
28.29419
21
119.9749
0
LINE
8
1
62
7
10
29.00084
20
117.3123
11
29.00084
21
117.3123
0
LINE
8
1
62
7
10
29.42254
20
117.0436
11
29.42254
21
117.0436
0
LINE
8
1
62
7
10
30.94065
20
116.0765
11
30.94065
21
116.0765
0
LINE
8
1
62
7
10
32.75295
20
128.5028
11
32.75295
21
128.5028
0
LINE
8
1
62
7
10
32.56863
20
128.6717
11
32.56863
21
128.6717
0
LINE
8
1
62
7
10
31.57331
20
129.5838
11
31.57331
21
129.5838
0
LINE
8
1
62
7
10
30.70332
20
130.381
11
30.70332
21
130.381
0
LINE
8
1
62
7
10
30.519
20
130.5499
11
30.519
21
130.5499
0
LINE
8
1
62
7
10
27.64131
20
129.8124
11
27.64131
21
129.8124
0
LINE
8
1
62
7
10
27.82563
20
129.6435
11
27.82563
21
129.6435
0
LINE
8
1
62
7
10
28.69561
20
128.8463
11
28.69561
21
128.8463
0
LINE
8
1
62
7
10
29.69094
20
127.9342
11
29.69094
21
127.9342
0
LINE
8
1
62
7
10
28.62699
20
124.6911
11
28.62699
21
124.6911
0
LINE
8
1
62
7
10
28.44267
20
124.86
11
28.44267
21
124.86
0
LINE
8
1
62
7
10
27.44735
20
125.772
11
27.44735
21
125.772
0
LINE
8
1
62
7
10
27.61461
20
122.2443
11
27.61461
21
122.2443
0
LINE
8
1
62
7
10
27.79893
20
122.0754
11
27.79893
21
122.0754
0
LINE
8
1
62
7
10
28.66891
20
121.2782
11
28.66891
21
121.2782
0
LINE
8
1
62
7
10
32.76818
20
117.522
11
32.76818
21
117.522
0
LINE
8
1
62
7
10
33.7635
20
116.6099
11
33.7635
21
116.6099
0
LINE
8
1
62
7
10
33.94782
20
116.441
11
33.94782
21
116.441
0
LINE
8
1
62
7
10
29.89048
20
116.7844
11
29.89048
21
116.7844
0
LINE
8
1
62
7
10
29.02049
20
117.5816
11
29.02049
21
117.5816
0
LINE
8
1
62
7
10
28.83617
20
117.7505
11
28.83617
21
117.7505
0
LINE
8
1
62
7
10
27.84085
20
118.6626
11
27.84085
21
118.6626
0
LINE
8
1
62
7
10
26.97086
20
119.4598
11
26.97086
21
119.4598
0
ENDBLK
8
0
0
BLOCK
8
0
2
IP-G13
70
0
10
0
20
0
0
LINE
8
1
62
7
10
35.25106
20
129.5737
11
35.25106
21
129.5737
0
LINE
8
1
62
7
10
36.70192
20
128.335
11
36.70192
21
128.335
0
LINE
8
1
62
7
10
38.05062
20
129.3699
11
38.05062
21
129.3699
0
LINE
8
1
62
7
10
39.33982
20
130.3591
11
39.33982
21
130.3591
0
LINE
8
1
62
7
10
41.76075
20
130.6488
11
41.76075
21
130.6488
0
LINE
8
1
62
7
10
40.41205
20
129.6139
11
40.41205
21
129.6139
0
LINE
8
1
62
7
10
39.20616
20
128.6886
11
39.20616
21
128.6886
0
LINE
8
1
62
7
10
39.45112
20
126.5246
11
39.45112
21
126.5246
0
LINE
8
1
62
7
10
40.65702
20
127.45
11
40.65702
21
127.45
0
LINE
8
1
62
7
10
40.52335
20
125.7794
11
40.52335
21
125.7794
0
LINE
8
1
62
7
10
39.56242
20
122.6901
11
39.56242
21
122.6901
0
LINE
8
1
62
7
10
40.76832
20
123.6154
11
40.76832
21
123.6154
0
LINE
8
1
62
7
10
40.63465
20
121.9449
11
40.63465
21
121.9449
0
LINE
8
1
62
7
10
39.42876
20
121.0196
11
39.42876
21
121.0196
0
LINE
8
1
62
7
10
35.58496
20
118.0702
11
35.58496
21
118.0702
0
LINE
8
1
62
7
10
35.82993
20
115.9062
11
35.82993
21
115.9062
0
LINE
8
1
62
7
10
37.03582
20
116.8315
11
37.03582
21
116.8315
0
LINE
8
1
62
7
10
38.38452
20
117.8664
11
38.38452
21
117.8664
0
LINE
8
1
62
7
10
39.67372
20
118.8556
11
39.67372
21
118.8556
0
LINE
8
1
62
7
10
40.74595
20
118.1104
11
40.74595
21
118.1104
0
LINE
8
1
62
7
10
39.54005
20
117.1851
11
39.54005
21
117.1851
0
LINE
8
1
62
7
10
38.25085
20
116.1959
11
38.25085
21
116.1959
0
LINE
8
1
62
7
10
39.99835
20
129.5743
11
39.99835
21
129.5743
0
LINE
8
1
62
7
10
39.18537
20
129.4673
11
39.18537
21
129.4673
0
LINE
8
1
62
7
10
38.66486
20
129.3987
11
38.66486
21
129.3987
0
LINE
8
1
62
7
10
37.30658
20
129.2199
11
37.30658
21
129.2199
0
LINE
8
1
62
7
10
36.4936
20
129.1129
11
36.4936
21
129.1129
0
LINE
8
1
62
7
10
35.97308
20
129.0444
11
35.97308
21
129.0444
0
LINE
8
1
62
7
10
34.61481
20
128.8655
11
34.61481
21
128.8655
0
LINE
8
1
62
7
10
39.57653
20
127.0094
11
39.57653
21
127.0094
0
LINE
8
1
62
7
10
40.09704
20
127.0779
11
40.09704
21
127.0779
0
LINE
8
1
62
7
10
40.91002
20
127.185
11
40.91002
21
127.185
0
LINE
8
1
62
7
10
41.00871
20
124.6886
11
41.00871
21
124.6886
0
LINE
8
1
62
7
10
40.4882
20
124.6201
11
40.4882
21
124.6201
0
LINE
8
1
62
7
10
39.12992
20
124.4412
11
39.12992
21
124.4412
0
LINE
8
1
62
7
10
38.7081
20
121.8763
11
38.7081
21
121.8763
0
LINE
8
1
62
7
10
39.22861
20
121.9449
11
39.22861
21
121.9449
0
LINE
8
1
62
7
10
40.04159
20
122.0519
11
40.04159
21
122.0519
0
LINE
8
1
62
7
10
41.03445
20
119.0459
11
41.03445
21
119.0459
0
LINE
8
1
62
7
10
40.22146
20
118.9389
11
40.22146
21
118.9389
0
LINE
8
1
62
7
10
39.70095
20
118.8703
11
39.70095
21
118.8703
0
LINE
8
1
62
7
10
35.81602
20
115.8495
11
35.81602
21
115.8495
0
LINE
8
1
62
7
10
36.33652
20
115.918
11
36.33652
21
115.918
0
LINE
8
1
62
7
10
37.14951
20
116.0251
11
37.14951
21
116.0251
0
LINE
8
1
62
7
10
38.50779
20
116.2039
11
38.50779
21
116.2039
0
LINE
8
1
62
7
10
39.0283
20
116.2724
11
39.0283
21
116.2724
0
LINE
8
1
62
7
10
39.84128
20
116.3794
11
39.84128
21
116.3794
0
LINE
8
1
62
7
10
41.19956
20
116.5583
11
41.19956
21
116.5583
0
LINE
8
1
62
7
10
41.72007
20
116.6268
11
41.72007
21
116.6268
0
LINE
8
1
62
7
10
40.70063
20
130.1236
11
40.70063
21
130.1236
0
LINE
8
1
62
7
10
37.48552
20
129.9594
11
37.48552
21
129.9594
0
LINE
8
1
62
7
10
37.90721
20
129.6908
11
37.90721
21
129.6908
0
LINE
8
1
62
7
10
39.42532
20
128.7236
11
39.42532
21
128.7236
0
LINE
8
1
62
7
10
40.46616
20
126.5856
11
40.46616
21
126.5856
0
LINE
8
1
62
7
10
38.94806
20
127.5527
11
38.94806
21
127.5527
0
LINE
8
1
62
7
10
36.54439
20
129.084
11
36.54439
21
129.084
0
LINE
8
1
62
7
10
35.02628
20
130.0512
11
35.02628
21
130.0512
0
LINE
8
1
62
7
10
39.23302
20
125.1588
11
39.23302
21
125.1588
0
LINE
8
1
62
7
10
39.65471
20
124.8901
11
39.65471
21
124.8901
0
LINE
8
1
62
7
10
41.17282
20
123.923
11
41.17282
21
123.923
0
LINE
8
1
62
7
10
40.36137
20
122.2275
11
40.36137
21
122.2275
0
LINE
8
1
62
7
10
39.93967
20
122.4962
11
39.93967
21
122.4962
0
LINE
8
1
62
7
10
40.98051
20
120.3582
11
40.98051
21
120.3582
0
LINE
8
1
62
7
10
39.7052
20
118.9582
11
39.7052
21
118.9582
0
LINE
8
1
62
7
10
38.47206
20
117.5314
11
38.47206
21
117.5314
0
LINE
8
1
62
7
10
38.89376
20
117.2628
11
38.89376
21
117.2628
0
LINE
8
1
62
7
10
40.41186
20
116.2956
11
40.41186
21
116.2956
0
LINE
8
1
62
7
10
35.67864
20
117.0986
11
35.67864
21
117.0986
0
LINE
8
1
62
7
10
35.25695
20
117.3672
11
35.25695
21
117.3672
0
LINE
8
1
62
7
10
41.03974
20
128.6255
11
41.03974
21
128.6255
0
LINE
8
1
62
7
10
40.85542
20
128.7944
11
40.85542
21
128.7944
0
LINE
8
1
62
7
10
39.8601
20
129.7064
11
39.8601
21
129.7064
0
LINE
8
1
62
7
10
38.99011
20
130.5036
11
38.99011
21
130.5036
0
LINE
8
1
62
7
10
35.9281
20
129.935
11
35.9281
21
129.935
0
LINE
8
1
62
7
10
36.11242
20
129.7661
11
36.11242
21
129.7661
0
LINE
8
1
62
7
10
36.9824
20
128.9689
11
36.9824
21
128.9689
0
LINE
8
1
62
7
10
37.97773
20
128.0569
11
37.97773
21
128.0569
0
LINE
8
1
62
7
10
38.16204
20
127.888
11
38.16204
21
127.888
0
LINE
8
1
62
7
10
39.03203
20
127.0908
11
39.03203
21
127.0908
0
LINE
8
1
62
7
10
40.02736
20
126.1787
11
40.02736
21
126.1787
0
LINE
8
1
62
7
10
40.21168
20
126.0098
11
40.21168
21
126.0098
0
LINE
8
1
62
7
10
41.08167
20
125.2126
11
41.08167
21
125.2126
0
LINE
8
1
62
7
10
41.01304
20
121.0575
11
41.01304
21
121.0575
0
LINE
8
1
62
7
10
40.82872
20
121.2264
11
40.82872
21
121.2264
0
LINE
8
1
62
7
10
39.8334
20
122.1384
11
39.8334
21
122.1384
0
LINE
8
1
62
7
10
39.00533
20
119.5228
11
39.00533
21
119.5228
0
LINE
8
1
62
7
10
40.00066
20
118.6107
11
40.00066
21
118.6107
0
LINE
8
1
62
7
10
40.18498
20
118.4418
11
40.18498
21
118.4418
0
LINE
8
1
62
7
10
41.05497
20
117.6446
11
41.05497
21
117.6446
0
LINE
8
1
62
7
10
39.17259
20
115.995
11
39.17259
21
115.995
0
LINE
8
1
62
7
10
38.17727
20
116.9071
11
38.17727
21
116.9071
0
LINE
8
1
62
7
10
37.30728
20
117.7043
11
37.30728
21
117.7043
0
LINE
8
1
62
7
10
37.12296
20
117.8732
11
37.12296
21
117.8732
0
ENDBLK
8
0
0
BLOCK
8
0
2
IP-G14
70
0
10
0
20
0
0
LINE
8
1
62
7
10
35.00874
20
127.5766
11
35.00874
21
127.5766
0
LINE
8
1
62
7
10
31.39105
20
124.8006
11
31.39105
21
124.8006
0
LINE
8
1
62
7
10
31.74732
20
118.8021
11
31.74732
21
118.8021
0
LINE
8
1
62
7
10
35.36501
20
121.5781
11
35.36501
21
121.5781
0
LINE
8
1
62
7
10
37.6828
20
121.6199
11
37.6828
21
121.6199
0
LINE
8
1
62
7
10
33.60796
20
121.0835
11
33.60796
21
121.0835
0
LINE
8
1
62
7
10
31.169
20
120.7624
11
31.169
21
120.7624
0
LINE
8
1
62
7
10
29.60748
20
120.5568
11
29.60748
21
120.5568
0
LINE
8
1
62
7
10
31.20368
20
127.1619
11
31.20368
21
127.1619
0
LINE
8
1
62
7
10
35.758
20
124.2605
11
35.758
21
124.2605
0
LINE
8
1
62
7
10
33.65784
20
119.6987
11
33.65784
21
119.6987
0
LINE
8
1
62
7
10
32.39275
20
120.5046
11
32.39275
21
120.5046
0
LINE
8
1
62
7
10
36.05041
20
126.4031
11
36.05041
21
126.4031
0
LINE
8
1
62
7
10
29.98309
20
120.9958
11
29.98309
21
120.9958
0
LINE
8
1
62
7
10
30.53605
20
120.4892
11
30.53605
21
120.4892
0
ENDBLK
8
0
0
BLOCK
8
0
2
IP-G15
70
0
10
0
20
0
0
LINE
8
1
62
7
10
93
20
71.72733
11
93
21
71.72733
0
LINE
8
1
62
7
10
91.5
20
71.72733
11
90
21
71.72733
0
LINE
8
1
62
7
10
88.5
20
71.72733
11
88.5
21
71.72733
0
LINE
8
1
62
7
10
87
20
71.72733
11
87
21
71.72733
0
LINE
8
1
62
7
10
85.5
20
71.72733
11
84.20193
21
71.72733
0
LINE
8
1
62
7
10
85.5
20
70.48338
11
85.5
21
70.48338
0
LINE
8
1
62
7
10
87
20
70.48338
11
88.5
21
70.48338
0
LINE
8
1
62
7
10
90
20
70.48338
11
90
21
70.48338
0
LINE
8
1
62
7
10
91.5
20
70.48338
11
91.5
21
70.48338
0
LINE
8
1
62
7
10
93
20
70.48338
11
94.35374
21
70.48338
0
LINE
8
1
62
7
10
93
20
68.61745
11
93
21
68.61745
0
LINE
8
1
62
7
10
91.5
20
68.61745
11
90
21
68.61745
0
LINE
8
1
62
7
10
88.5
20
68.61745
11
88.5
21
68.61745
0
LINE
8
1
62
7
10
87
20
68.61745
11
87
21
68.61745
0
LINE
8
1
62
7
10
85.5
20
68.61745
11
84.20193
21
68.61745
0
LINE
8
1
62
7
10
85.5
20
67.3735
11
85.5
21
67.3735
0
LINE
8
1
62
7
10
87
20
67.3735
11
88.5
21
67.3735
0
LINE
8
1
62
7
10
88.5
20
65.50758
11
88.5
21
65.50758
0
LINE
8
1
62
7
10
87
20
65.50758
11
87
21
65.50758
0
LINE
8
1
62
7
10
85.5
20
65.50758
11
84.20193
21
65.50758
0
LINE
8
1
62
7
10
85.5
20
64.26363
11
85.5
21
64.26363
0
LINE
8
1
62
7
10
87
20
64.26363
11
88.5
21
64.26363
0
LINE
8
1
62
7
10
88.5
20
63.01968
11
88.5
21
63.01968
0
LINE
8
1
62
7
10
87
20
63.01968
11
87
21
63.01968
0
LINE
8
1
62
7
10
85.5
20
63.01968
11
84.20193
21
63.01968
0
LINE
8
1
62
7
10
85.5
20
61.15376
11
85.5
21
61.15376
0
LINE
8
1
62
7
10
87
20
61.15376
11
88.5
21
61.15376
0
LINE
8
1
62
7
10
88.5
20
59.90981
11
88.5
21
59.90981
0
LINE
8
1
62
7
10
87
20
59.90981
11
87
21
59.90981
0
LINE
8
1
62
7
10
85.5
20
59.90981
11
84.20193
21
59.90981
0
LINE
8
1
62
7
10
85.5
20
58.04388
11
85.5
21
58.04388
0
LINE
8
1
62
7
10
87
20
58.04388
11
88.5
21
58.04388
0
LINE
8
1
62
7
10
90
20
58.04388
11
90
21
58.04388
0
LINE
8
1
62
7
10
91.5
20
58.04388
11
91.5
21
58.04388
0
LINE
8
1
62
7
10
93
20
58.04388
11
94.35374
21
58.04388
0
LINE
8
1
62
7
10
93
20
56.79993
11
93
21
56.79993
0
LINE
8
1
62
7
10
91.5
20
56.79993
11
90
21
56.79993
0
LINE
8
1
62
7
10
88.5
20
56.79993
11
88.5
21
56.79993
0
LINE
8
1
62
7
10
87
20
56.79993
11
87
21
56.79993
0
LINE
8
1
62
7
10
85.5
20
56.79993
11
84.20193
21
56.79993
0
LINE
8
1
62
7
10
85.5
20
54.93401
11
85.5
21
54.93401
0
LINE
8
1
62
7
10
87
20
54.93401
11
88.5
21
54.93401
0
LINE
8
1
62
7
10
90
20
54.93401
11
90
21
54.93401
0
LINE
8
1
62
7
10
91.5
20
54.93401
11
91.5
21
54.93401
0
LINE
8
1
62
7
10
93
20
54.93401
11
94.35374
21
54.93401
0
LINE
8
1
62
7
10
93
20
53.69006
11
93
21
53.69006
0
LINE
8
1
62
7
10
91.5
20
53.69006
11
90
21
53.69006
0
LINE
8
1
62
7
10
88.5
20
53.69006
11
88.5
21
53.69006
0
LINE
8
1
62
7
10
87
20
53.69006
11
87
21
53.69006
0
LINE
8
1
62
7
10
85.5
20
53.69006
11
84.20193
21
53.69006
0
ENDBLK
8
0
0
BLOCK
8
0
2
IP-G16
70
0
10
0
20
0
0
LINE
8
1
62
7
10
93
20
89.8735
11
93
21
89.8735
0
LINE
8
1
62
7
10
91.5
20
89.8735
11
90
21
89.8735
0
LINE
8
1
62
7
10
88.5
20
89.8735
11
88.5
21
89.8735
0
LINE
8
1
62
7
10
87
20
89.8735
11
87
21
89.8735
0
LINE
8
1
62
7
10
85.5
20
89.8735
11
84.20193
21
89.8735
0
LINE
8
1
62
7
10
85.5
20
88.62955
11
85.5
21
88.62955
0
LINE
8
1
62
7
10
87
20
88.62955
11
88.5
21
88.62955
0
LINE
8
1
62
7
10
90
20
88.62955
11
90
21
88.62955
0
LINE
8
1
62
7
10
91.5
20
88.62955
11
91.5
21
88.62955
0
LINE
8
1
62
7
10
93
20
88.62955
11
94.35374
21
88.62955
0
LINE
8
1
62
7
10
88.5
20
86.76363
11
88.5
21
86.76363
0
LINE
8
1
62
7
10
87
20
86.76363
11
87
21
86.76363
0
LINE
8
1
62
7
10
85.5
20
86.76363
11
84.20193
21
86.76363
0
LINE
8
1
62
7
10
85.5
20
85.51968
11
85.5
21
85.51968
0
LINE
8
1
62
7
10
87
20
85.51968
11
88.5
21
85.51968
0
LINE
8
1
62
7
10
88.5
20
83.65376
11
88.5
21
83.65376
0
LINE
8
1
62
7
10
87
20
83.65376
11
87
21
83.65376
0
LINE
8
1
62
7
10
85.5
20
83.65376
11
84.20193
21
83.65376
0
LINE
8
1
62
7
10
85.5
20
82.40981
11
85.5
21
82.40981
0
LINE
8
1
62
7
10
87
20
82.40981
11
88.5
21
82.40981
0
LINE
8
1
62
7
10
88.5
20
81.16586
11
88.5
21
81.16586
0
LINE
8
1
62
7
10
87
20
81.16586
11
87
21
81.16586
0
LINE
8
1
62
7
10
85.5
20
81.16586
11
84.20193
21
81.16586
0
LINE
8
1
62
7
10
85.5
20
79.29993
11
85.5
21
79.29993
0
LINE
8
1
62
7
10
87
20
79.29993
11
88.5
21
79.29993
0
LINE
8
1
62
7
10
93
20
78.05598
11
93
21
78.05598
0
LINE
8
1
62
7
10
91.5
20
78.05598
11
90
21
78.05598
0
LINE
8
1
62
7
10
88.5
20
78.05598
11
88.5
21
78.05598
0
LINE
8
1
62
7
10
87
20
78.05598
11
87
21
78.05598
0
LINE
8
1
62
7
10
85.5
20
78.05598
11
84.20193
21
78.05598
0
LINE
8
1
62
7
10
85.5
20
76.19006
11
85.5
21
76.19006
0
LINE
8
1
62
7
10
87
20
76.19006
11
88.5
21
76.19006
0
LINE
8
1
62
7
10
90
20
76.19006
11
90
21
76.19006
0
LINE
8
1
62
7
10
91.5
20
76.19006
11
91.5
21
76.19006
0
LINE
8
1
62
7
10
93
20
76.19006
11
94.35374
21
76.19006
0
ENDBLK
8
0
0
BLOCK
8
0
2
IP-G17
70
0
10
0
20
0
0
LINE
8
1
62
7
10
88.5
20
100.5439
11
87
21
100.5439
0
LINE
8
1
62
7
10
85.5
20
100.5439
11
85.5
21
100.5439
0
LINE
8
1
62
7
10
84.20193
20
99.29993
11
85.5
21
99.29993
0
LINE
8
1
62
7
10
87
20
99.29993
11
87
21
99.29993
0
LINE
8
1
62
7
10
88.5
20
99.29993
11
88.5
21
99.29993
0
LINE
8
1
62
7
10
94.35374
20
97.43401
11
93
21
97.43401
0
LINE
8
1
62
7
10
91.5
20
97.43401
11
91.5
21
97.43401
0
LINE
8
1
62
7
10
90
20
97.43401
11
90
21
97.43401
0
LINE
8
1
62
7
10
88.5
20
97.43401
11
87
21
97.43401
0
LINE
8
1
62
7
10
85.5
20
97.43401
11
85.5
21
97.43401
0
LINE
8
1
62
7
10
84.20193
20
96.19006
11
85.5
21
96.19006
0
LINE
8
1
62
7
10
87
20
96.19006
11
87
21
96.19006
0
LINE
8
1
62
7
10
88.5
20
96.19006
11
88.5
21
96.19006
0
LINE
8
1
62
7
10
90
20
96.19006
11
91.5
21
96.19006
0
LINE
8
1
62
7
10
93
20
96.19006
11
93
21
96.19006
0
ENDBLK
8
0
0
BLOCK
8
0
2
IP-G18
70
0
10
0
20
0
0
ARC
8
1
62
7
10
87.11667
20
136.075
40
0.5
50
315
51
135
0
LINE
8
1
62
7
10
84.99535
20
133.9537
11
87.47022
21
135.7214
0
LINE
8
1
62
7
10
86.76311
20
136.4285
11
84.99535
21
133.9537
0
ENDBLK
8
0
0
BLOCK
8
0
2
IP-G19
70
0
10
0
20
0
0
ARC
8
1
62
7
10
94.13676
20
135.9416
40
0.5
50
360
51
180
0
LINE
8
1
62
7
10
94.13676
20
132.9416
11
94.63676
21
135.9416
0
LINE
8
1
62
7
10
93.63676
20
135.9416
11
94.13676
21
132.9416
0
ENDBLK
8
0
0
BLOCK
8
0
2
IP-G20
70
0
10
0
20
0
0
ARC
8
1
62
7
10
62.75853
20
165.821
40
1.5
50
270
51
89.99999
0
LINE
8
1
62
7
10
52.75853
20
167.321
11
54.75853
21
167.321
0
ARC
8
1
62
7
10
55.75853
20
167.321
40
1
50
180
51
360
0
LINE
8
1
62
7
10
56.75853
20
167.321
11
62.75853
21
167.321
0
LINE
8
1
62
7
10
52.75853
20
164.3607
11
54.75853
21
164.3607
0
ARC
8
1
62
7
10
55.75853
20
164.3607
40
1
50
9.334668e-06
51
180
0
LINE
8
1
62
7
10
56.75853
20
164.3607
11
62.75853
21
164.3607
0
LINE
8
1
62
7
10
52.75853
20
167.321
11
52.75853
21
164.3607
0
LINE
8
1
62
7
10
42.75852
20
165.4608
11
52.75853
21
165.4608
0
LINE
8
1
62
7
10
42.75852
20
166.2211
11
52.75853
21
166.2211
0
LINE
8
1
62
7
10
40.18128
20
166.2211
11
40.18128
21
165.4608
0
LINE
8
1
62
7
10
42.75852
20
166.2211
11
42.2085
21
166.6452
0
LINE
8
1
62
7
10
42.2085
20
166.6452
11
40.18128
21
166.2211
0
LINE
8
1
62
7
10
42.75852
20
165.4608
11
42.2085
21
165.0366
0
LINE
8
1
62
7
10
42.2085
20
165.0366
11
40.18128
21
165.4608
0
ENDBLK
8
0
0
BLOCK
8
0
2
IP-G21
70
0
10
0
20
0
0
POLYLINE
8
1
62
7
70
1
66
1
40
0
41
0
0
VERTEX
8
1
10
40.38952
20
146.6105
0
VERTEX
8
1
10
40.38952
20
146.8105
0
VERTEX
8
1
10
44.38952
20
146.8105
0
VERTEX
8
1
10
44.38952
20
146.6105
0
SEQEND
8
1
0
POLYLINE
8
1
62
7
70
1
66
1
40
0
41
0
0
VERTEX
8
1
10
44.38952
20
146.4632
0
VERTEX
8
1
10
44.38952
20
146.9632
0
VERTEX
8
1
10
54.38952
20
146.9632
0
VERTEX
8
1
10
54.38952
20
146.4632
0
SEQEND
8
1
0
ENDBLK
8
0
0
BLOCK
8
0
2
IP-G22
70
0
10
0
20
0
0
ARC
8
1
62
7
10
96.38734
20
170.3717
40
0.5
50
177.253
51
357.253
0
LINE
8
1
62
7
10
96.53111
20
173.3683
11
96.88676
21
170.3478
0
LINE
8
1
62
7
10
95.88791
20
170.3957
11
96.53111
21
173.3683
0
ENDBLK
8
0
0
BLOCK
8
0
2
IP-G23
70
0
10
0
20
0
0
ARC
8
1
62
7
10
92.01653
20
170.3717
40
0.5
50
182.747
51
2.747015
0
LINE
8
1
62
7
10
91.87276
20
173.3683
11
91.51711
21
170.3478
0
LINE
8
1
62
7
10
92.51596
20
170.3957
11
91.87276
21
173.3683
0
ENDBLK
8
0
0
BLOCK
8
0
2
IP-G24
70
0
10
0
20
0
0
ARC
8
1
62
7
10
87.11667
20
150.0612
40
0.5
50
225
51
45.00001
0
LINE
8
1
62
7
10
84.99535
20
152.1825
11
87.47022
21
150.4147
0
LINE
8
1
62
7
10
86.76311
20
149.7076
11
84.99535
21
152.1825
0
ENDBLK
8
0
0
BLOCK
8
0
2
IP-G25
70
0
10
0
20
0
0
ARC
8
1
62
7
10
94.13676
20
150.1946
40
0.5
50
180
51
360
0
LINE
8
1
62
7
10
94.13676
20
153.1946
11
94.63676
21
150.1946
0
LINE
8
1
62
7
10
93.63676
20
150.1946
11
94.13676
21
153.1946
0
ENDBLK
8
0
0
BLOCK
8
0
2
IP-G26
70
0
10
0
20
0
0
ARC
8
1
62
7
10
87.07545
20
143.1333
40
0.5
50
270
51
90
0
LINE
8
1
62
7
10
84.07545
20
143.1333
11
87.07545
21
142.6333
0
LINE
8
1
62
7
10
87.07545
20
143.6333
11
84.07545
21
143.1333
0
ENDBLK
8
0
0
BLOCK
8
0
2
IP-G27
70
0
10
0
20
0
0
ARC
8
1
62
7
10
85.85495
20
160.9217
40
0.5
50
240.1707
51
60.17074
0
LINE
8
1
62
7
10
83.25241
20
162.414
11
86.10365
21
161.3555
0
LINE
8
1
62
7
10
85.60624
20
160.488
11
83.25241
21
162.414
0
ENDBLK
8
0
0
BLOCK
8
0
2
IP-G28
70
0
10
0
20
0
0
ARC
8
1
62
7
10
85.85495
20
164.9217
40
0.5
50
240.1707
51
60.17074
0
LINE
8
1
62
7
10
83.25241
20
166.414
11
86.10365
21
165.3555
0
LINE
8
1
62
7
10
85.60624
20
164.488
11
83.25241
21
166.414
0
ENDBLK
8
0
0
BLOCK
8
0
2
IP-G29
70
0
10
0
20
0
0
ARC
8
1
62
7
10
87.11667
20
170.0612
40
0.5
50
225
51
45.00001
0
LINE
8
1
62
7
10
84.99535
20
172.1825
11
87.47022
21
170.4147
0
LINE
8
1
62
7
10
86.76311
20
169.7076
11
84.99535
21
172.1825
0
ENDBLK
8
0
0
BLOCK
8
0
2
IP-G30
70
0
10
0
20
0
0
ARC
8
1
62
7
10
86.79171
20
203.6061
40
0.5
50
180
51
360
0
LINE
8
1
62
7
10
86.79171
20
206.6061
11
87.29171
21
203.6061
0
LINE
8
1
62
7
10
86.29171
20
203.6061
11
86.79171
21
206.6061
0
ENDBLK
8
0
0
BLOCK
8
0
2
IP-G31
70
0
10
0
20
0
0
ARC
8
1
62
7
10
92.79171
20
190.6061
40
0.5
50
180
51
360
0
LINE
8
1
62
7
10
92.79171
20
193.6061
11
93.29171
21
190.6061
0
LINE
8
1
62
7
10
92.29171
20
190.6061
11
92.79171
21
193.6061
0
ENDBLK
8
0
0
BLOCK
8
0
2
IP-G32
70
0
10
0
20
0
0
ARC
8
1
62
7
10
95.79171
20
190.6061
40
0.5
50
180
51
360
0
LINE
8
1
62
7
10
95.79171
20
193.6061
11
96.29171
21
190.6061
0
LINE
8
1
62
7
10
95.29171
20
190.6061
11
95.79171
21
193.6061
0
ENDBLK
8
0
0
BLOCK
8
0
2
IP-G33
70
0
10
0
20
0
0
ARC
8
1
62
7
10
85.44049
20
182.7936
40
0.5
50
195
51
14.99998
0
LINE
8
1
62
7
10
84.66404
20
185.6914
11
85.92345
21
182.923
0
LINE
8
1
62
7
10
84.95753
20
182.6642
11
84.66404
21
185.6914
0
ENDBLK
8
0
0
BLOCK
8
0
2
IP-G34
70
0
10
0
20
0
0
ARC
8
1
62
7
10
83.62876
20
189.5551
40
0.5
50
195
51
14.99998
0
LINE
8
1
62
7
10
82.8523
20
192.4529
11
84.11172
21
189.6845
0
LINE
8
1
62
7
10
83.1458
20
189.4257
11
82.8523
21
192.4529
0
ENDBLK
8
0
0
BLOCK
8
0
2
IP-G35
70
0
10
0
20
0
0
ARC
8
1
62
7
10
88.67049
20
190.1534
40
0.5
50
185.2143
51
5.214345
0
LINE
8
1
62
7
10
88.39784
20
193.141
11
89.16842
21
190.1989
0
LINE
8
1
62
7
10
88.17255
20
190.108
11
88.39784
21
193.141
0
ENDBLK
8
0
0
BLOCK
8
0
2
IP-G36
70
0
10
0
20
0
0
ARC
8
1
62
7
10
99.38734
20
190.3717
40
0.5
50
177.253
51
357.253
0
LINE
8
1
62
7
10
99.53111
20
193.3683
11
99.88676
21
190.3478
0
LINE
8
1
62
7
10
98.88791
20
190.3957
11
99.53111
21
193.3683
0
ENDBLK
8
0
0
BLOCK
8
0
2
IP-G37
70
0
10
0
20
0
0
ARC
8
1
62
7
10
86.79171
20
210.6061
40
0.5
50
180
51
360
0
LINE
8
1
62
7
10
86.79171
20
213.6061
11
87.29171
21
210.6061
0
LINE
8
1
62
7
10
86.29171
20
210.6061
11
86.79171
21
213.6061
0
ENDBLK
8
0
0
BLOCK
8
0
2
IP-G38
70
0
10
0
20
0
0
ARC
8
1
62
7
10
91.79171
20
210.6061
40
0.5
50
180
51
360
0
LINE
8
1
62
7
10
91.79171
20
213.6061
11
92.29171
21
210.6061
0
LINE
8
1
62
7
10
91.29171
20
210.6061
11
91.79171
21
213.6061
0
ENDBLK
8
0
0
BLOCK
8
0
2
IP-G39
70
0
10
0
20
0
0
ARC
8
1
62
7
10
96.79171
20
210.6061
40
0.5
50
180
51
360
0
LINE
8
1
62
7
10
96.79171
20
213.6061
11
97.29171
21
210.6061
0
LINE
8
1
62
7
10
96.29171
20
210.6061
11
96.79171
21
213.6061
0
ENDBLK
8
0
0
BLOCK
8
0
2
IP-G40
70
0
10
0
20
0
0
ARC
8
1
62
7
10
167.6212
20
130.9899
40
8
50
61.69063
51
129.8892
0
ARC
8
1
62
7
10
169.7156
20
130.0556
40
8
50
78.85733
51
133.0669
0
LINE
8
1
62
7
10
162.9076
20
132.2634
11
166.8585
21
127.2245
0
LINE
8
1
62
7
10
164.7491
20
133.8025
11
169.0069
21
129.0201
0
LINE
8
1
62
7
10
171.2616
20
137.9048
11
171.4151
21
138.0331
0
LINE
8
1
62
7
10
160.4203
20
134.6156
11
156.4808
21
131.8443
0
LINE
8
1
62
7
10
161.7029
20
133.081
11
158.2764
21
129.6959
0
ARC
8
1
62
7
10
161.0616
20
133.8483
40
5
50
203.629
51
236.1494
0
LINE
8
1
62
7
10
161.7029
20
133.081
11
162.7542
21
132.1351
0
LINE
8
1
62
7
10
164.9026
20
133.9308
11
164.0299
21
135.2867
0
LINE
8
1
62
7
10
162.7542
20
132.1351
11
164.9026
21
133.9308
0
LINE
8
1
62
7
10
160.4203
20
134.6156
11
160.1889
21
135.2043
0
LINE
8
1
62
7
10
160.1889
20
135.2043
11
162.4908
21
137.1282
0
LINE
8
1
62
7
10
164.0299
20
135.2867
11
164.2528
21
135.9001
0
ENDBLK
8
0
0
BLOCK
8
0
2
IP-G41
70
0
10
0
20
0
0
ARC
8
1
62
7
10
102.5489
20
160.9217
40
0.5
50
119.8293
51
299.8293
0
LINE
8
1
62
7
10
105.1515
20
162.414
11
102.3002
21
161.3555
0
LINE
8
1
62
7
10
102.7976
20
160.488
11
105.1515
21
162.414
0
ENDBLK
8
0
0
BLOCK
8
0
2
IP-G42
70
0
10
0
20
0
0
ARC
8
1
62
7
10
102.5489
20
164.9217
40
0.5
50
119.8293
51
299.8293
0
LINE
8
1
62
7
10
105.1515
20
166.414
11
102.3002
21
165.3555
0
LINE
8
1
62
7
10
102.7976
20
164.488
11
105.1515
21
166.414
0
ENDBLK
8
0
0
BLOCK
8
0
2
IP-G43
70
0
10
0
20
0
0
ARC
8
1
62
7
10
103.1368
20
182.7471
40
0.5
50
165
51
345
0
LINE
8
1
62
7
10
103.9133
20
185.6449
11
103.6198
21
182.6177
0
LINE
8
1
62
7
10
102.6538
20
182.8765
11
103.9133
21
185.6449
0
ENDBLK
8
0
0
BLOCK
8
0
2
IP-G44
70
0
10
0
20
0
0
ARC
8
1
62
7
10
104.9485
20
189.5086
40
0.5
50
165
51
345
0
LINE
8
1
62
7
10
105.725
20
192.4064
11
105.4315
21
189.3792
0
LINE
8
1
62
7
10
104.4656
20
189.638
11
105.725
21
192.4064
0
ENDBLK
8
0
0
BLOCK
8
0
2
IP-G45
70
0
10
0
20
0
0
ARC
8
1
62
7
10
167.5497
20
170.1709
40
6.4
50
61.69063
51
129.8892
0
ARC
8
1
62
7
10
169.2252
20
169.4234
40
6.4
50
78.85733
51
133.0669
0
LINE
8
1
62
7
10
163.7788
20
171.1896
11
166.9395
21
167.1585
0
LINE
8
1
62
7
10
165.252
20
172.4209
11
168.6582
21
168.595
0
LINE
8
1
62
7
10
170.462
20
175.7028
11
170.5847
21
175.8054
0
LINE
8
1
62
7
10
161.7889
20
173.0714
11
158.6373
21
170.8543
0
LINE
8
1
62
7
10
162.815
20
171.8438
11
160.0738
21
169.1356
0
ARC
8
1
62
7
10
162.3019
20
172.4576
40
4
50
203.629
51
236.1494
0
LINE
8
1
62
7
10
162.815
20
171.8438
11
163.656
21
171.087
0
LINE
8
1
62
7
10
165.3747
20
172.5235
11
164.6766
21
173.6083
0
LINE
8
1
62
7
10
163.656
20
171.087
11
165.3747
21
172.5235
0
LINE
8
1
62
7
10
161.7889
20
173.0714
11
161.6038
21
173.5423
0
LINE
8
1
62
7
10
161.6038
20
173.5423
11
163.4453
21
175.0815
0
LINE
8
1
62
7
10
164.6766
20
173.6083
11
164.8549
21
174.099
0
ENDBLK
8
0
0
ENDSEC
0
SECTION
2
ENTITIES
0
INSERT
8
1
2
IP-G1
10
0
20
0
0
INSERT
8
1
2
IP-G2
10
0
20
0
0
INSERT
8
1
2
IP-G3
10
0
20
0
0
INSERT
8
1
2
IP-G4
10
0
20
0
0
INSERT
8
1
2
IP-G5
10
0
20
0
0
LINE
8
1
62
7
10
99.20193
20
188.0681
11
102.2019
21
186.0681
0
INSERT
8
1
2
IP-G6
10
0
20
0
0
ARC
8
1
62
7
10
101.7019
20
93.06808
40
2.5
50
180
51
360
0
POLYLINE
8
1
62
7
70
1
66
1
40
0
41
0
0
VERTEX
8
1
10
94.20193
20
73.06808
0
VERTEX
8
1
10
94.20193
20
68.06808
0
VERTEX
8
1
10
99.20193
20
68.06808
0
VERTEX
8
1
10
99.20193
20
58.06808
0
VERTEX
8
1
10
94.20193
20
58.06808
0
VERTEX
8
1
10
94.20193
20
53.06808
0
VERTEX
8
1
10
104.2019
20
53.06808
0
VERTEX
8
1
10
104.2019
20
73.06808
0
SEQEND
8
1
0
INSERT
8
1
2
IP-G7
10
0
20
0
0
POLYLINE
8
1
62
7
70
1
66
1
40
0
41
0
0
VERTEX
8
1
10
94.20193
20
90.56766
0
VERTEX
8
1
10
94.20193
20
88.06808
0
VERTEX
8
1
10
99.20193
20
88.06808
0
VERTEX
8
1
10
99.20193
20
78.06808
0
VERTEX
8
1
10
94.20193
20
78.06808
0
VERTEX
8
1
10
94.20193
20
75.56808
0
VERTEX
8
1
10
104.2019
20
75.56808
0
VERTEX
8
1
10
104.2019
20
90.56766
0
SEQEND
8
1
0
INSERT
8
1
2
IP-G8
10
0
20
0
0
TEXT
8
1
62
7
40
3
1
IP stands for Ingress Protection.
7
ROMANC
72
0
10
42.47268
20
36.94906
0
TEXT
8
1
62
7
40
3
1

7
ROMANC
72
0
10
42.47268
20
32.09192
0
TEXT
8
1
62
7
40
3
1
Common ratings are:
7
ROMANC
72
0
10
42.47268
20
27.23478
0
TEXT
8
1
62
7
40
3
1
IP22 Drip proof
7
ROMANC
72
0
10
42.47268
20
22.37763
0
TEXT
8
1
62
7
40
3
1
IP54 Dust proof
7
ROMANC
72
0
10
42.47268
20
17.52049
0
TEXT
8
1
62
7
40
3
1
IP55 Weatherproof
7
ROMANC
72
0
10
42.47268
20
12.66335
0
TEXT
8
1
62
7
40
3
1
IP57 Watertight
7
ROMANC
72
0
10
42.47268
20
7.806205
0
TEXT
8
1
62
7
40
3
1
Second Number
7
ROMANC
72
0
10
89.20193
20
246.4556
0
TEXT
8
1
62
7
40
3
1
Protection against
7
ROMANC
72
0
10
89.20193
20
241.5985
0
TEXT
8
1
62
7
40
3
1
liquids
7
ROMANC
72
0
10
89.20193
20
236.7414
0
TEXT
8
1
62
7
40
2
1
No protection
7
ROMANS
72
0
10
100.2661
20
221.8976
0
ARC
8
1
62
7
10
101.7019
20
104.0681
40
2.5
50
180
51
360
0
POLYLINE
8
1
62
7
70
1
66
1
40
0
41
0
0
VERTEX
8
1
10
99.20193
20
98.06808
0
VERTEX
8
1
10
94.20193
20
98.06808
0
VERTEX
8
1
10
94.20193
20
95.56808
0
VERTEX
8
1
10
104.2019
20
95.56808
0
VERTEX
8
1
10
104.2019
20
101.0681
0
VERTEX
8
1
10
99.20193
20
101.0681
0
SEQEND
8
1
0
INSERT
8
1
2
IP-G9
10
0
20
0
0
POLYLINE
8
1
62
7
70
4
66
1
40
0
41
0
0
VERTEX
8
1
10
103.7465
20
117.575
70
16
0
VERTEX
8
1
10
100.9799
20
119.2598
70
16
0
VERTEX
8
1
10
100.0288
20
120.062
70
16
0
VERTEX
8
1
10
100.0288
20
121.4258
70
16
0
VERTEX
8
1
10
103.7465
20
117.575
70
8
0
VERTEX
8
1
10
102.7924
20
118.1683
70
8
0
VERTEX
8
1
10
101.9984
20
118.6957
70
8
0
VERTEX
8
1
10
101.3544
20
119.1742
70
8
0
VERTEX
8
1
10
100.8502
20
119.6208
70
8
0
VERTEX
8
1
10
100.4756
20
120.0523
70
8
0
VERTEX
8
1
10
100.2207
20
120.4857
70
8
0
VERTEX
8
1
10
100.0751
20
120.9379
70
8
0
VERTEX
8
1
10
100.0288
20
121.4258
70
8
0
SEQEND
8
1
0
POLYLINE
8
1
62
7
70
4
66
1
40
0
41
0
0
VERTEX
8
1
10
101.9072
20
120.507
70
16
0
VERTEX
8
1
10
99.57292
20
123.9567
70
16
0
VERTEX
8
1
10
99.57292
20
124.9194
70
16
0
VERTEX
8
1
10
99.48647
20
125.8821
70
16
0
VERTEX
8
1
10
99.91875
20
130.134
70
16
0
VERTEX
8
1
10
100.9562
20
131.4979
70
16
0
VERTEX
8
1
10
101.9072
20
120.507
70
8
0
VERTEX
8
1
10
101.1367
20
121.6671
70
8
0
VERTEX
8
1
10
100.5575
20
122.5828
70
8
0
VERTEX
8
1
10
100.1421
20
123.2879
70
8
0
VERTEX
8
1
10
99.86291
20
123.8163
70
8
0
VERTEX
8
1
10
99.6925
20
124.2018
70
8
0
VERTEX
8
1
10
99.60332
20
124.4782
70
8
0
VERTEX
8
1
10
99.56783
20
124.6794
70
8
0
VERTEX
8
1
10
99.55851
20
124.8392
70
8
0
VERTEX
8
1
10
99.5527
20
124.9878
70
8
0
VERTEX
8
1
10
99.54714
20
125.1403
70
8
0
VERTEX
8
1
10
99.54344
20
125.3084
70
8
0
VERTEX
8
1
10
99.5432
20
125.5035
70
8
0
VERTEX
8
1
10
99.54803
20
125.7372
70
8
0
VERTEX
8
1
10
99.55953
20
126.0209
70
8
0
VERTEX
8
1
10
99.5793
20
126.3662
70
8
0
VERTEX
8
1
10
99.60895
20
126.7846
70
8
0
VERTEX
8
1
10
99.65117
20
127.2825
70
8
0
VERTEX
8
1
10
99.71308
20
127.8454
70
8
0
VERTEX
8
1
10
99.80284
20
128.454
70
8
0
VERTEX
8
1
10
99.92865
20
129.0886
70
8
0
VERTEX
8
1
10
100.0987
20
129.7298
70
8
0
VERTEX
8
1
10
100.3212
20
130.3581
70
8
0
VERTEX
8
1
10
100.6043
20
130.954
70
8
0
VERTEX
8
1
10
100.9562
20
131.4979
70
8
0
SEQEND
8
1
0
POLYLINE
8
1
62
7
70
4
66
1
40
0
41
0
0
VERTEX
8
1
10
103.855
20
118.1114
70
16
0
VERTEX
8
1
10
100.1374
20
124.369
70
16
0
VERTEX
8
1
10
99.79158
20
127.3373
70
16
0
VERTEX
8
1
10
102.3853
20
129.4232
70
16
0
VERTEX
8
1
10
103.855
20
118.1114
70
8
0
VERTEX
8
1
10
102.6181
20
120.3085
70
8
0
VERTEX
8
1
10
101.6923
20
122.2255
70
8
0
VERTEX
8
1
10
101.0724
20
123.8905
70
8
0
VERTEX
8
1
10
100.7534
20
125.3317
70
8
0
VERTEX
8
1
10
100.7303
20
126.5774
70
8
0
VERTEX
8
1
10
100.9979
20
127.6557
70
8
0
VERTEX
8
1
10
101.5513
20
128.5949
70
8
0
VERTEX
8
1
10
102.3853
20
129.4232
70
8
0
SEQEND
8
1
0
POLYLINE
8
1
62
7
70
4
66
1
40
0
41
0
0
VERTEX
8
1
10
96.83849
20
117.4444
70
16
0
VERTEX
8
1
10
99.6051
20
117.5247
70
16
0
VERTEX
8
1
10
102.1988
20
117.4444
70
16
0
VERTEX
8
1
10
102.804
20
117.284
70
16
0
VERTEX
8
1
10
96.83849
20
117.4444
70
8
0
VERTEX
8
1
10
97.86432
20
117.4672
70
8
0
VERTEX
8
1
10
98.85266
20
117.4758
70
8
0
VERTEX
8
1
10
99.78224
20
117.4712
70
8
0
VERTEX
8
1
10
100.6318
20
117.4545
70
8
0
VERTEX
8
1
10
101.38
20
117.4264
70
8
0
VERTEX
8
1
10
102.0056
20
117.388
70
8
0
VERTEX
8
1
10
102.4874
20
117.3402
70
8
0
VERTEX
8
1
10
102.804
20
117.284
70
8
0
SEQEND
8
1
0
POLYLINE
8
1
62
7
70
4
66
1
40
0
41
0
0
VERTEX
8
1
10
90.03506
20
112.6154
70
16
0
VERTEX
8
1
10
91.37036
20
114.6263
70
16
0
VERTEX
8
1
10
93.24506
20
115.7301
70
16
0
VERTEX
8
1
10
97.40791
20
116.6125
70
16
0
VERTEX
8
1
10
103.2943
20
116.8854
70
16
0
VERTEX
8
1
10
90.03506
20
112.6154
70
8
0
VERTEX
8
1
10
90.51904
20
113.3039
70
8
0
VERTEX
8
1
10
90.97708
20
113.872
70
8
0
VERTEX
8
1
10
91.42054
20
114.3362
70
8
0
VERTEX
8
1
10
91.8608
20
114.713
70
8
0
VERTEX
8
1
10
92.30922
20
115.0188
70
8
0
VERTEX
8
1
10
92.77716
20
115.27
70
8
0
VERTEX
8
1
10
93.276
20
115.4832
70
8
0
VERTEX
8
1
10
93.8171
20
115.6747
70
8
0
VERTEX
8
1
10
94.41625
20
115.8581
70
8
0
VERTEX
8
1
10
95.10691
20
116.035
70
8
0
VERTEX
8
1
10
95.92697
20
116.204
70
8
0
VERTEX
8
1
10
96.91432
20
116.3639
70
8
0
VERTEX
8
1
10
98.10684
20
116.5133
70
8
0
VERTEX
8
1
10
99.54242
20
116.6509
70
8
0
VERTEX
8
1
10
101.2589
20
116.7754
70
8
0
VERTEX
8
1
10
103.2943
20
116.8854
70
8
0
SEQEND
8
1
0
POLYLINE
8
1
62
7
70
1
66
1
40
0
41
0
0
VERTEX
8
1
10
29.20193
20
138.0681
0
VERTEX
8
1
10
29.20193
20
148.0681
0
VERTEX
8
1
10
39.20193
20
148.0681
0
VERTEX
8
1
10
39.20193
20
138.0681
0
SEQEND
8
1
0
POLYLINE
8
1
62
7
70
1
66
1
40
0
41
0
0
VERTEX
8
1
10
89.20193
20
138.0681
0
VERTEX
8
1
10
89.20193
20
148.0681
0
VERTEX
8
1
10
99.20193
20
148.0681
0
VERTEX
8
1
10
99.20193
20
138.0681
0
SEQEND
8
1
0
TEXT
8
1
62
7
40
2
1
Solid objects
7
ROMANS
72
0
10
41.59813
20
142.1168
0
TEXT
8
1
62
7
40
2
1
over 1mm
7
ROMANS
72
0
10
41.59813
20
138.8787
0
TEXT
8
1
62
7
40
2
1
eg: wires
7
ROMANS
72
0
10
41.59813
20
135.6406
0
TEXT
8
1
62
7
40
2
1
Totally sealed
7
ROMANS
72
0
10
44.47584
20
104.9663
0
TEXT
8
1
62
7
40
2
1
against dust
7
ROMANS
72
0
10
44.47584
20
101.7282
0
TEXT
8
1
62
7
40
2
1
Dust protected
7
ROMANS
72
0
10
44.47584
20
124.9663
0
TEXT
8
1
62
7
40
2
1
(limited ingress
7
ROMANS
72
0
10
44.47584
20
121.7282
0
TEXT
8
1
62
7
40
2
1
allowed)
7
ROMANS
72
0
10
44.47584
20
118.4901
0
TEXT
8
1
62
7
40
6
1
9
7
ROMANC
72
1
10
13.29626
20
40.00392
11
15.72483
21
40.00392
0
TEXT
8
1
62
7
40
6
1
8
7
ROMANC
72
1
10
13.29626
20
60.00392
11
15.72483
21
60.00392
0
TEXT
8
1
62
7
40
6
1
6
7
ROMANC
72
1
10
13.29626
20
100.0039
11
15.72483
21
100.0039
0
TEXT
8
1
62
7
40
6
1
7
7
ROMANC
72
1
10
13.29626
20
80.00392
11
15.72483
21
80.00392
0
TEXT
8
1
62
7
40
6
1
5
7
ROMANC
72
1
10
13.29626
20
120.0039
11
15.72483
21
120.0039
0
POLYLINE
8
1
62
7
70
1
66
1
40
0
41
0
0
VERTEX
8
1
10
29.20193
20
98.06808
0
VERTEX
8
1
10
29.20193
20
108.0681
0
VERTEX
8
1
10
39.20193
20
108.0681
0
VERTEX
8
1
10
39.20193
20
98.06808
0
SEQEND
8
1
0
POLYLINE
8
1
62
7
70
1
66
1
40
0
41
0
0
VERTEX
8
1
10
34.20193
20
110.5681
0
VERTEX
8
1
10
34.20193
20
108.0681
0
VERTEX
8
1
10
39.20193
20
108.0681
0
VERTEX
8
1
10
39.20193
20
98.06808
0
VERTEX
8
1
10
34.20193
20
98.06808
0
VERTEX
8
1
10
34.20193
20
95.56808
0
VERTEX
8
1
10
41.70193
20
95.56808
0
VERTEX
8
1
10
41.70193
20
110.5681
0
SEQEND
8
1
0
INSERT
8
1
2
IP-G10
10
0
20
0
0
POLYLINE
8
1
62
7
70
1
66
1
40
0
41
0
0
VERTEX
8
1
10
34.20193
20
110.5681
0
VERTEX
8
1
10
26.70193
20
110.5681
0
VERTEX
8
1
10
26.70193
20
95.56808
0
VERTEX
8
1
10
34.20193
20
95.56808
0
VERTEX
8
1
10
34.20193
20
98.06808
0
VERTEX
8
1
10
29.20193
20
98.06808
0
VERTEX
8
1
10
29.20193
20
108.0681
0
VERTEX
8
1
10
34.20193
20
108.0681
0
SEQEND
8
1
0
INSERT
8
1
2
IP-G11
10
0
20
0
0
POLYLINE
8
1
62
7
70
1
66
1
40
0
41
0
0
VERTEX
8
1
10
34.20193
20
130.5681
0
VERTEX
8
1
10
26.70193
20
130.5681
0
VERTEX
8
1
10
26.70193
20
115.5681
0
VERTEX
8
1
10
34.20193
20
115.5681
0
VERTEX
8
1
10
34.20193
20
118.0681
0
VERTEX
8
1
10
29.20193
20
118.0681
0
VERTEX
8
1
10
29.20193
20
128.0681
0
VERTEX
8
1
10
34.20193
20
128.0681
0
SEQEND
8
1
0
INSERT
8
1
2
IP-G12
10
0
20
0
0
POLYLINE
8
1
62
7
70
1
66
1
40
0
41
0
0
VERTEX
8
1
10
34.20193
20
130.5681
0
VERTEX
8
1
10
34.20193
20
128.0681
0
VERTEX
8
1
10
39.20193
20
128.0681
0
VERTEX
8
1
10
39.20193
20
118.0681
0
VERTEX
8
1
10
34.20193
20
118.0681
0
VERTEX
8
1
10
34.20193
20
115.5681
0
VERTEX
8
1
10
41.70193
20
115.5681
0
VERTEX
8
1
10
41.70193
20
130.5681
0
SEQEND
8
1
0
INSERT
8
1
2
IP-G13
10
0
20
0
0
POLYLINE
8
1
62
7
70
1
66
1
40
0
41
0
0
VERTEX
8
1
10
29.20193
20
128.0681
0
VERTEX
8
1
10
39.20193
20
128.0681
0
VERTEX
8
1
10
39.20193
20
118.0681
0
VERTEX
8
1
10
29.20193
20
118.0681
0
SEQEND
8
1
0
INSERT
8
1
2
IP-G14
10
0
20
0
0
POLYLINE
8
1
62
7
70
1
66
1
40
0
41
0
0
VERTEX
8
1
10
84.20193
20
73.06808
0
VERTEX
8
1
10
94.20193
20
73.06808
0
VERTEX
8
1
10
94.20193
20
68.06808
0
VERTEX
8
1
10
89.20193
20
68.06808
0
VERTEX
8
1
10
89.20193
20
58.06808
0
VERTEX
8
1
10
94.20193
20
58.06808
0
VERTEX
8
1
10
94.20193
20
53.06808
0
VERTEX
8
1
10
84.20193
20
53.06808
0
SEQEND
8
1
0
INSERT
8
1
2
IP-G15
10
0
20
0
0
POLYLINE
8
1
62
7
70
1
66
1
40
0
41
0
0
VERTEX
8
1
10
89.20193
20
58.06808
0
VERTEX
8
1
10
89.20193
20
68.06808
0
VERTEX
8
1
10
99.20193
20
68.06808
0
VERTEX
8
1
10
99.20193
20
58.06808
0
SEQEND
8
1
0
POLYLINE
8
1
62
7
70
1
66
1
40
0
41
0
0
VERTEX
8
1
10
89.20193
20
98.06808
0
VERTEX
8
1
10
89.20193
20
108.0681
0
VERTEX
8
1
10
99.20193
20
108.0681
0
VERTEX
8
1
10
99.20193
20
98.06808
0
SEQEND
8
1
0
ARC
8
1
62
7
10
86.70193
20
104.0681
40
2.5
50
180
51
360
0
POLYLINE
8
1
62
7
70
1
66
1
40
0
41
0
0
VERTEX
8
1
10
89.20193
20
78.06808
0
VERTEX
8
1
10
89.20193
20
88.06808
0
VERTEX
8
1
10
99.20193
20
88.06808
0
VERTEX
8
1
10
99.20193
20
78.06808
0
SEQEND
8
1
0
ARC
8
1
62
7
10
86.70193
20
93.06808
40
2.5
50
180
51
360
0
ARC
8
1
62
7
10
91.70193
20
93.06808
40
2.5
50
180
51
360
0
ARC
8
1
62
7
10
96.70193
20
93.06808
40
2.5
50
180
51
360
0
POLYLINE
8
1
62
7
70
1
66
1
40
0
41
0
0
VERTEX
8
1
10
84.20193
20
90.56766
0
VERTEX
8
1
10
94.20193
20
90.56766
0
VERTEX
8
1
10
94.20193
20
88.06808
0
VERTEX
8
1
10
89.20193
20
88.06808
0
VERTEX
8
1
10
89.20193
20
78.06808
0
VERTEX
8
1
10
94.20193
20
78.06808
0
VERTEX
8
1
10
94.20193
20
75.56808
0
VERTEX
8
1
10
84.20193
20
75.56808
0
SEQEND
8
1
0
INSERT
8
1
2
IP-G16
10
0
20
0
0
POLYLINE
8
1
62
7
70
1
66
1
40
0
41
0
0
VERTEX
8
1
10
89.20193
20
98.06808
0
VERTEX
8
1
10
94.20193
20
98.06808
0
VERTEX
8
1
10
94.20193
20
95.56808
0
VERTEX
8
1
10
84.20193
20
95.56808
0
VERTEX
8
1
10
84.20193
20
101.0681
0
VERTEX
8
1
10
89.20193
20
101.0681
0
SEQEND
8
1
0
INSERT
8
1
2
IP-G17
10
0
20
0
0
POLYLINE
8
1
62
7
70
1
66
1
40
0
41
0
0
VERTEX
8
1
10
89.20193
20
118.0681
0
VERTEX
8
1
10
89.20193
20
128.0681
0
VERTEX
8
1
10
99.20193
20
128.0681
0
VERTEX
8
1
10
99.20193
20
118.0681
0
SEQEND
8
1
0
INSERT
8
1
2
IP-G18
10
0
20
0
0
INSERT
8
1
2
IP-G19
10
0
20
0
0
POLYLINE
8
1
62
7
70
4
66
1
40
0
41
0
0
VERTEX
8
1
10
88.20287
20
115.5694
70
16
0
VERTEX
8
1
10
92.61217
20
117.0135
70
16
0
VERTEX
8
1
10
92.61217
20
117.0135
70
16
0
VERTEX
8
1
10
94.60067
20
117.0135
70
16
0
VERTEX
8
1
10
88.20287
20
115.5694
70
8
0
VERTEX
8
1
10
89.66217
20
116.046
70
8
0
VERTEX
8
1
10
90.78307
20
116.4042
70
8
0
VERTEX
8
1
10
91.64054
20
116.6609
70
8
0
VERTEX
8
1
10
92.30957
20
116.8329
70
8
0
VERTEX
8
1
10
92.86512
20
116.9373
70
8
0
VERTEX
8
1
10
93.38217
20
116.9909
70
8
0
VERTEX
8
1
10
93.9357
20
117.0106
70
8
0
VERTEX
8
1
10
94.60067
20
117.0135
70
8
0
SEQEND
8
1
0
POLYLINE
8
1
62
7
70
4
66
1
40
0
41
0
0
VERTEX
8
1
10
88.35917
20
112.5381
70
16
0
VERTEX
8
1
10
90.00185
20
114.7042
70
16
0
VERTEX
8
1
10
91.2987
20
115.7471
70
16
0
VERTEX
8
1
10
94.67051
20
116.3889
70
16
0
VERTEX
8
1
10
88.35917
20
112.5381
70
8
0
VERTEX
8
1
10
88.96369
20
113.2991
70
8
0
VERTEX
8
1
10
89.56416
20
113.9633
70
8
0
VERTEX
8
1
10
90.18894
20
114.5392
70
8
0
VERTEX
8
1
10
90.86641
20
115.0351
70
8
0
VERTEX
8
1
10
91.62494
20
115.4596
70
8
0
VERTEX
8
1
10
92.49288
20
115.8211
70
8
0
VERTEX
8
1
10
93.49862
20
116.128
70
8
0
VERTEX
8
1
10
94.67051
20
116.3889
70
8
0
SEQEND
8
1
0
INSERT
8
1
2
IP-G20
10
0
20
0
0
INSERT
8
1
2
IP-G21
10
0
20
0
0
TEXT
8
1
62
7
40
3
1
First Number
7
ROMANC
72
0
10
29.20193
20
246.4556
0
TEXT
8
1
62
7
40
3
1
Protection against
7
ROMANC
72
0
10
29.20193
20
241.5985
0
TEXT
8
1
62
7
40
3
1
solid objects
7
ROMANC
72
0
10
29.20193
20
236.7414
0
TEXT
8
1
62
7
40
2
1
Solid objects
7
ROMANS
72
0
10
42.24532
20
160.6005
0
TEXT
8
1
62
7
40
2
1
over 2.5 mm
7
ROMANS
72
0
10
42.24532
20
157.3624
0
TEXT
8
1
62
7
40
2
1
eg: tools
7
ROMANS
72
0
10
42.24532
20
154.1243
0
TEXT
8
1
62
7
40
2
1
Solid objects
7
ROMANS
72
0
10
42.67623
20
178.8098
0
TEXT
8
1
62
7
40
2
1
over 12mm
7
ROMANS
72
0
10
42.67623
20
175.5717
0
TEXT
8
1
62
7
40
2
1
eg: fingers
7
ROMANS
72
0
10
42.67623
20
172.3336
0
TEXT
8
1
62
7
40
2
1
No protection
7
ROMANS
72
0
10
40.26613
20
221.8976
0
TEXT
8
1
62
7
40
2
1
Solid objects
7
ROMANS
72
0
10
41.90039
20
205.2455
0
TEXT
8
1
62
7
40
2
1
over 50mm
7
ROMANS
72
0
10
41.90039
20
202.0074
0
TEXT
8
1
62
7
40
2
1
eg: Hands
7
ROMANS
72
0
10
41.90039
20
198.7693
0
POLYLINE
8
1
62
7
6
DASHED
70
1
66
1
40
0
41
0
0
VERTEX
8
1
10
29.20193
20
198.0681
0
VERTEX
8
1
10
29.20193
20
208.0681
0
VERTEX
8
1
10
39.20193
20
208.0681
0
VERTEX
8
1
10
39.20193
20
198.0681
0
SEQEND
8
1
0
TEXT
8
1
62
7
40
6
1
4
7
ROMANC
72
1
10
13.01054
20
140.0039
11
15.58197
21
140.0039
0
TEXT
8
1
62
7
40
6
1
3
7
ROMANC
72
1
10
13.29626
20
160.0039
11
15.72483
21
160.0039
0
TEXT
8
1
62
7
40
6
1
2
7
ROMANC
72
1
10
13.29626
20
180.0039
11
15.72483
21
180.0039
0
TEXT
8
1
62
7
40
6
1
1
7
ROMANC
72
1
10
14.01054
20
200.0039
11
16.1534
21
200.0039
0
POLYLINE
8
1
62
7
6
DOTS
70
1
66
1
40
0
41
0
0
VERTEX
8
1
10
29.20193
20
158.0681
0
VERTEX
8
1
10
29.20193
20
168.0681
0
VERTEX
8
1
10
39.20193
20
168.0681
0
VERTEX
8
1
10
39.20193
20
158.0681
0
SEQEND
8
1
0
POLYLINE
8
1
62
7
6
HIDDEN
70
1
66
1
40
0
41
0
0
VERTEX
8
1
10
29.20193
20
178.0681
0
VERTEX
8
1
10
29.20193
20
188.0681
0
VERTEX
8
1
10
39.20193
20
188.0681
0
VERTEX
8
1
10
39.20193
20
178.0681
0
SEQEND
8
1
0
POLYLINE
8
1
62
7
70
4
66
1
40
0
41
0
0
VERTEX
8
1
10
46.21697
20
184.8055
70
16
0
VERTEX
8
1
10
47.08321
20
184.5103
70
16
0
VERTEX
8
1
10
48.271
20
184.6181
70
16
0
VERTEX
8
1
10
50.0428
20
185.5675
70
16
0
VERTEX
8
1
10
50.67278
20
186.0838
70
16
0
VERTEX
8
1
10
46.21697
20
184.8055
70
8
0
VERTEX
8
1
10
46.52986
20
184.7109
70
8
0
VERTEX
8
1
10
46.82212
20
184.6474
70
8
0
VERTEX
8
1
10
47.09865
20
184.6134
70
8
0
VERTEX
8
1
10
47.36436
20
184.6072
70
8
0
VERTEX
8
1
10
47.62415
20
184.6273
70
8
0
VERTEX
8
1
10
47.88292
20
184.6719
70
8
0
VERTEX
8
1
10
48.14557
20
184.7395
70
8
0
VERTEX
8
1
10
48.417
20
184.8285
70
8
0
VERTEX
8
1
10
48.70052
20
184.9372
70
8
0
VERTEX
8
1
10
48.99302
20
185.0636
70
8
0
VERTEX
8
1
10
49.28979
20
185.2057
70
8
0
VERTEX
8
1
10
49.58611
20
185.3617
70
8
0
VERTEX
8
1
10
49.87728
20
185.5294
70
8
0
VERTEX
8
1
10
50.15859
20
185.707
70
8
0
VERTEX
8
1
10
50.42533
20
185.8924
70
8
0
VERTEX
8
1
10
50.67278
20
186.0838
70
8
0
SEQEND
8
1
0
POLYLINE
8
1
62
7
70
4
66
1
40
0
41
0
0
VERTEX
8
1
10
43.95943
20
187.1993
70
16
0
VERTEX
8
1
10
44.00536
20
187.5441
70
16
0
VERTEX
8
1
10
44.68783
20
187.88
70
16
0
VERTEX
8
1
10
45.88218
20
188.1328
70
16
0
VERTEX
8
1
10
47.73273
20
188.8117
70
16
0
VERTEX
8
1
10
49.41927
20
189.2165
70
16
0
VERTEX
8
1
10
43.95943
20
187.1993
70
8
0
VERTEX
8
1
10
43.98997
20
187.3206
70
8
0
VERTEX
8
1
10
44.04508
20
187.4268
70
8
0
VERTEX
8
1
10
44.12161
20
187.5197
70
8
0
VERTEX
8
1
10
44.21645
20
187.6007
70
8
0
VERTEX
8
1
10
44.32646
20
187.6715
70
8
0
VERTEX
8
1
10
44.44852
20
187.7336
70
8
0
VERTEX
8
1
10
44.5795
20
187.7886
70
8
0
VERTEX
8
1
10
44.71627
20
187.8381
70
8
0
VERTEX
8
1
10
44.85669
20
187.8838
70
8
0
VERTEX
8
1
10
45.00254
20
187.9275
70
8
0
VERTEX
8
1
10
45.15656
20
187.9713
70
8
0
VERTEX
8
1
10
45.32151
20
188.0171
70
8
0
VERTEX
8
1
10
45.50015
20
188.0669
70
8
0
VERTEX
8
1
10
45.69523
20
188.1228
70
8
0
VERTEX
8
1
10
45.90952
20
188.1866
70
8
0
VERTEX
8
1
10
46.14576
20
188.2604
70
8
0
VERTEX
8
1
10
46.40722
20
188.3457
70
8
0
VERTEX
8
1
10
46.69923
20
188.4422
70
8
0
VERTEX
8
1
10
47.02761
20
188.5493
70
8
0
VERTEX
8
1
10
47.3982
20
188.6661
70
8
0
VERTEX
8
1
10
47.81683
20
188.7919
70
8
0
VERTEX
8
1
10
48.28932
20
188.9261
70
8
0
VERTEX
8
1
10
48.82153
20
189.0679
70
8
0
VERTEX
8
1
10
49.41927
20
189.2165
70
8
0
SEQEND
8
1
0
POLYLINE
8
1
62
7
70
4
66
1
40
0
41
0
0
VERTEX
8
1
10
40.99983
20
186.1421
70
16
0
VERTEX
8
1
10
40.59954
20
185.3395
70
16
0
VERTEX
8
1
10
40.80302
20
184.4732
70
16
0
VERTEX
8
1
10
41.5052
20
183.9039
70
16
0
VERTEX
8
1
10
42.87677
20
183.3806
70
16
0
VERTEX
8
1
10
44.00549
20
183.5238
70
16
0
VERTEX
8
1
10
45.48855
20
184.1249
70
16
0
VERTEX
8
1
10
46.21697
20
184.8055
70
16
0
VERTEX
8
1
10
40.99983
20
186.1421
70
8
0
VERTEX
8
1
10
40.8724
20
185.8579
70
8
0
VERTEX
8
1
10
40.78693
20
185.6055
70
8
0
VERTEX
8
1
10
40.73831
20
185.3819
70
8
0
VERTEX
8
1
10
40.72143
20
185.1843
70
8
0
VERTEX
8
1
10
40.73119
20
185.0097
70
8
0
VERTEX
8
1
10
40.76247
20
184.8551
70
8
0
VERTEX
8
1
10
40.81017
20
184.7179
70
8
0
VERTEX
8
1
10
40.86918
20
184.5949
70
8
0
VERTEX
8
1
10
40.93533
20
184.4836
70
8
0
VERTEX
8
1
10
41.00822
20
184.3823
70
8
0
VERTEX
8
1
10
41.08837
20
184.2898
70
8
0
VERTEX
8
1
10
41.17633
20
184.2047
70
8
0
VERTEX
8
1
10
41.27261
20
184.1257
70
8
0
VERTEX
8
1
10
41.37776
20
184.0514
70
8
0
VERTEX
8
1
10
41.4923
20
183.9804
70
8
0
VERTEX
8
1
10
41.61677
20
183.9116
70
8
0
VERTEX
8
1
10
41.75131
20
183.8438
70
8
0
VERTEX
8
1
10
41.89453
20
183.778
70
8
0
VERTEX
8
1
10
42.04465
20
183.7154
70
8
0
VERTEX
8
1
10
42.19987
20
183.6571
70
8
0
VERTEX
8
1
10
42.35844
20
183.6044
70
8
0
VERTEX
8
1
10
42.51855
20
183.5584
70
8
0
VERTEX
8
1
10
42.67843
20
183.5204
70
8
0
VERTEX
8
1
10
42.8363
20
183.4917
70
8
0
VERTEX
8
1
10
42.9911
20
183.4732
70
8
0
VERTEX
8
1
10
43.14473
20
183.4652
70
8
0
VERTEX
8
1
10
43.29979
20
183.4681
70
8
0
VERTEX
8
1
10
43.4589
20
183.4819
70
8
0
VERTEX
8
1
10
43.62468
20
183.5068
70
8
0
VERTEX
8
1
10
43.79973
20
183.5431
70
8
0
VERTEX
8
1
10
43.98668
20
183.5908
70
8
0
VERTEX
8
1
10
44.18813
20
183.6502
70
8
0
VERTEX
8
1
10
44.40589
20
183.7219
70
8
0
VERTEX
8
1
10
44.63849
20
183.8085
70
8
0
VERTEX
8
1
10
44.88361
20
183.9128
70
8
0
VERTEX
8
1
10
45.13898
20
184.0379
70
8
0
VERTEX
8
1
10
45.40229
20
184.1868
70
8
0
VERTEX
8
1
10
45.67126
20
184.3624
70
8
0
VERTEX
8
1
10
45.94358
20
184.5676
70
8
0
VERTEX
8
1
10
46.21697
20
184.8055
70
8
0
SEQEND
8
1
0
POLYLINE
8
1
62
7
70
4
66
1
40
0
41
0
0
VERTEX
8
1
10
40.73733
20
186.3737
70
16
0
VERTEX
8
1
10
42.27947
20
186.9394
70
16
0
VERTEX
8
1
10
42.27947
20
186.9394
70
16
0
VERTEX
8
1
10
43.92663
20
187.1445
70
16
0
VERTEX
8
1
10
40.73733
20
186.3737
70
8
0
VERTEX
8
1
10
41.24958
20
186.5608
70
8
0
VERTEX
8
1
10
41.65462
20
186.704
70
8
0
VERTEX
8
1
10
41.98983
20
186.8121
70
8
0
VERTEX
8
1
10
42.2926
20
186.8943
70
8
0
VERTEX
8
1
10
42.60029
20
186.9597
70
8
0
VERTEX
8
1
10
42.95027
20
187.0171
70
8
0
VERTEX
8
1
10
43.37993
20
187.0757
70
8
0
VERTEX
8
1
10
43.92663
20
187.1445
70
8
0
SEQEND
8
1
0
POLYLINE
8
1
62
7
70
4
66
1
40
0
41
0
0
VERTEX
8
1
10
40.73733
20
186.3737
70
16
0
VERTEX
8
1
10
41.5642
20
185.8787
70
16
0
VERTEX
8
1
10
43.36228
20
186.0679
70
16
0
VERTEX
8
1
10
44.07101
20
186.3136
70
16
0
VERTEX
8
1
10
44.09724
20
186.8935
70
16
0
VERTEX
8
1
10
43.92663
20
187.1445
70
16
0
VERTEX
8
1
10
40.73733
20
186.3737
70
8
0
VERTEX
8
1
10
41.05
20
186.2145
70
8
0
VERTEX
8
1
10
41.36471
20
186.1037
70
8
0
VERTEX
8
1
10
41.67672
20
186.0341
70
8
0
VERTEX
8
1
10
41.98132
20
185.9989
70
8
0
VERTEX
8
1
10
42.27376
20
185.991
70
8
0
VERTEX
8
1
10
42.54932
20
186.0035
70
8
0
VERTEX
8
1
10
42.80327
20
186.0293
70
8
0
VERTEX
8
1
10
43.03088
20
186.0615
70
8
0
VERTEX
8
1
10
43.22864
20
186.0945
70
8
0
VERTEX
8
1
10
43.39791
20
186.1282
70
8
0
VERTEX
8
1
10
43.54126
20
186.1639
70
8
0
VERTEX
8
1
10
43.66128
20
186.2029
70
8
0
VERTEX
8
1
10
43.76052
20
186.2465
70
8
0
VERTEX
8
1
10
43.84158
20
186.2959
70
8
0
VERTEX
8
1
10
43.90703
20
186.3525
70
8
0
VERTEX
8
1
10
43.95945
20
186.4176
70
8
0
VERTEX
8
1
10
44.00083
20
186.4919
70
8
0
VERTEX
8
1
10
44.03091
20
186.5743
70
8
0
VERTEX
8
1
10
44.04884
20
186.6631
70
8
0
VERTEX
8
1
10
44.05377
20
186.7566
70
8
0
VERTEX
8
1
10
44.04486
20
186.8532
70
8
0
VERTEX
8
1
10
44.02127
20
186.9512
70
8
0
VERTEX
8
1
10
43.98214
20
187.0488
70
8
0
VERTEX
8
1
10
43.92663
20
187.1445
70
8
0
SEQEND
8
1
0
TEXT
8
1
62
7
40
6
1
IP
7
ROMANC
72
1
10
11.29626
20
240.0039
11
15.58197
21
240.0039
0
TEXT
8
1
62
7
40
6
1
0
7
ROMANC
72
1
10
13.29626
20
220.0039
11
15.72483
21
220.0039
0
POLYLINE
8
1
62
7
6
DOT
70
1
66
1
40
0
41
0
0
VERTEX
8
1
10
29.20193
20
218.0681
0
VERTEX
8
1
10
29.20193
20
228.0681
0
VERTEX
8
1
10
39.20193
20
228.0681
0
VERTEX
8
1
10
39.20193
20
218.0681
0
SEQEND
8
1
0
POLYLINE
8
1
62
7
6
HIDDEN
70
1
66
1
40
0
41
0
0
VERTEX
8
1
10
89.20193
20
198.0681
0
VERTEX
8
1
10
89.20193
20
208.0681
0
VERTEX
8
1
10
99.20193
20
208.0681
0
VERTEX
8
1
10
99.20193
20
198.0681
0
SEQEND
8
1
0
INSERT
8
1
2
IP-G22
10
0
20
0
0
INSERT
8
1
2
IP-G23
10
0
20
0
0
INSERT
8
1
2
IP-G24
10
0
20
0
0
INSERT
8
1
2
IP-G25
10
0
20
0
0
INSERT
8
1
2
IP-G26
10
0
20
0
0
LINE
8
1
62
7
10
89.20193
20
158.0681
11
89.20193
21
168.0681
0
LINE
8
1
62
7
10
89.20193
20
168.0681
11
99.20193
21
168.0681
0
LINE
8
1
62
7
10
99.20193
20
168.0681
11
99.20193
21
158.0681
0
LINE
8
1
62
7
6
HIDDEN
10
89.20193
20
158.0681
11
99.20193
21
158.0681
0
INSERT
8
1
2
IP-G27
10
0
20
0
0
INSERT
8
1
2
IP-G28
10
0
20
0
0
INSERT
8
1
2
IP-G29
10
0
20
0
0
INSERT
8
1
2
IP-G30
10
0
20
0
0
INSERT
8
1
2
IP-G31
10
0
20
0
0
INSERT
8
1
2
IP-G32
10
0
20
0
0
INSERT
8
1
2
IP-G33
10
0
20
0
0
INSERT
8
1
2
IP-G34
10
0
20
0
0
INSERT
8
1
2
IP-G35
10
0
20
0
0
INSERT
8
1
2
IP-G36
10
0
20
0
0
POLYLINE
8
1
62
7
6
HIDDEN
70
1
66
1
40
0
41
0
0
VERTEX
8
1
10
89.20193
20
178.0681
0
VERTEX
8
1
10
89.20193
20
188.0681
0
VERTEX
8
1
10
99.20193
20
188.0681
0
VERTEX
8
1
10
99.20193
20
178.0681
0
SEQEND
8
1
0
LINE
8
1
62
7
10
89.20193
20
188.0681
11
99.20193
21
188.0681
0
LINE
8
1
62
7
10
89.20193
20
188.0681
11
86.20193
21
186.0681
0
INSERT
8
1
2
IP-G37
10
0
20
0
0
INSERT
8
1
2
IP-G38
10
0
20
0
0
INSERT
8
1
2
IP-G39
10
0
20
0
0
POLYLINE
8
1
62
7
6
DOT
70
1
66
1
40
0
41
0
0
VERTEX
8
1
10
89.20193
20
218.0681
0
VERTEX
8
1
10
89.20193
20
228.0681
0
VERTEX
8
1
10
99.20193
20
228.0681
0
VERTEX
8
1
10
99.20193
20
218.0681
0
SEQEND
8
1
0
LINE
8
1
62
7
10
89.20193
20
208.0681
11
99.20193
21
208.0681
0
TEXT
8
1
62
7
40
2
1
Protection from
7
ROMANS
72
0
10
109.3249
20
145.963
0
TEXT
8
1
62
7
40
2
1
splashing in
7
ROMANS
72
0
10
109.3249
20
142.7249
0
TEXT
8
1
62
7
40
2
1
any direction
7
ROMANS
72
0
10
109.3249
20
139.4868
0
TEXT
8
1
62
7
40
2
1

7
ROMANS
72
0
10
109.3249
20
136.2487
0
INSERT
8
1
2
IP-G40
10
0
20
0
0
POLYLINE
8
1
62
7
70
1
66
1
40
2
41
2
0
VERTEX
8
1
10
149.2019
20
48.06808
0
VERTEX
8
1
10
159.2019
20
48.06808
0
VERTEX
8
1
10
159.2019
20
38.06808
0
VERTEX
8
1
10
149.2019
20
38.06808
0
SEQEND
8
1
0
POLYLINE
8
1
62
7
70
1
66
1
40
1.5
41
1.5
0
VERTEX
8
1
10
149.2019
20
88.06808
0
VERTEX
8
1
10
159.2019
20
88.06808
0
VERTEX
8
1
10
159.2019
20
78.06808
0
VERTEX
8
1
10
149.2019
20
78.06808
0
SEQEND
8
1
0
POLYLINE
8
1
62
7
70
1
66
1
40
1
41
1
0
VERTEX
8
1
10
149.2019
20
128.0681
0
VERTEX
8
1
10
159.2019
20
128.0681
0
VERTEX
8
1
10
159.2019
20
118.0681
0
VERTEX
8
1
10
149.2019
20
118.0681
0
SEQEND
8
1
0
TEXT
8
1
62
7
40
2
1
Protection from
7
ROMANS
72
0
10
109.3249
20
65.17345
0
TEXT
8
1
62
7
40
2
1
immersion up to
7
ROMANS
72
0
10
109.3249
20
61.93536
0
TEXT
8
1
62
7
40
2
1
a specified depth
7
ROMANS
72
0
10
109.3249
20
58.69727
0
TEXT
8
1
62
7
40
2
1
Protection from
7
ROMANS
72
0
10
109.3249
20
125.963
0
TEXT
8
1
62
7
40
2
1
pressurized water
7
ROMANS
72
0
10
109.3249
20
122.7249
0
TEXT
8
1
62
7
40
2
1
any direction
7
ROMANS
72
0
10
109.3249
20
119.4868
0
TEXT
8
1
62
7
40
2
1
Protection from
7
ROMANS
72
0
10
109.0413
20
83.85754
0
TEXT
8
1
62
7
40
2
1
immersion up to 1m
7
ROMANS
72
0
10
109.0413
20
80.61945
0
TEXT
8
1
62
7
40
2
1
Protection from
7
ROMANS
72
0
10
109.5729
20
103.4319
0
TEXT
8
1
62
7
40
2
1
ship-deck conditions
7
ROMANS
72
0
10
109.5729
20
100.1938
0
LINE
8
1
62
7
10
109.481
20
115.7215
11
110.3763
21
115.276
0
LINE
8
1
62
7
10
104.3364
20
116.6062
11
104.7819
21
117.5015
0
LINE
8
1
62
7
10
104.7819
20
117.5015
11
109.481
21
115.7215
0
LINE
8
1
62
7
10
104.3364
20
116.6062
11
108.59
21
113.9309
0
LINE
8
1
62
7
10
108.59
20
113.9309
11
109.4852
21
113.4854
0
LINE
8
1
62
7
10
109.5966
20
113.7092
11
114.9682
21
111.0361
0
LINE
8
1
62
7
10
110.2649
20
115.0521
11
115.6365
21
112.379
0
LINE
8
1
62
7
10
110.2649
20
115.0521
11
110.3763
21
115.276
0
LINE
8
1
62
7
10
109.5966
20
113.7092
11
109.4852
21
113.4854
0
TEXT
8
1
62
7
40
2
1
20.0 Joule
7
ROMANS
72
0
10
162.5854
20
43.33234
0
TEXT
8
1
62
7
40
2
1
5kg from 40cm
7
ROMANS
72
0
10
162.5854
20
40.09424
0
TEXT
8
1
62
7
40
2
1
Rev 1.0 31/3/94
7
ROMANS
72
0
10
168.1719
20
5.036213
0
LINE
8
1
62
7
10
152.8118
20
52.02795
11
157.1913
21
49.61563
0
LINE
8
1
62
7
10
157.1913
20
49.61563
11
158.6387
21
52.24338
0
LINE
8
1
62
7
10
159.0767
20
52.00215
11
158.6387
21
52.24338
0
LINE
8
1
62
7
10
159.0767
20
52.00215
11
161.0065
21
55.50581
0
LINE
8
1
62
7
10
161.0065
20
55.50581
11
160.5686
21
55.74704
0
LINE
8
1
62
7
10
160.5686
20
55.74704
11
162.016
21
58.37478
0
LINE
8
1
62
7
10
162.016
20
58.37478
11
157.6364
21
60.7871
0
LINE
8
1
62
7
10
157.6364
20
60.7871
11
156.189
21
58.15936
0
LINE
8
1
62
7
10
156.189
20
58.15936
11
155.751
21
58.40059
0
LINE
8
1
62
7
10
155.751
20
58.40059
11
153.8212
21
54.89692
0
LINE
8
1
62
7
10
153.8212
20
54.89692
11
154.2591
21
54.65569
0
LINE
8
1
62
7
10
154.2591
20
54.65569
11
152.8118
21
52.02795
0
LINE
8
1
62
7
10
159.5591
20
52.87806
11
168.3183
21
48.05342
0
LINE
8
1
62
7
10
169.2832
20
49.80525
11
160.524
21
54.62986
0
TEXT
8
1
62
7
40
2
1
6.0 Joule
7
ROMANS
72
0
10
162.5854
20
83.33234
0
TEXT
8
1
62
7
40
2
1
1.5kg from 40cm
7
ROMANS
72
0
10
162.5854
20
80.09424
0
TEXT
8
1
62
7
40
2
1
2.0 Joule
7
ROMANS
72
0
10
162.5854
20
123.3323
0
TEXT
8
1
62
7
40
2
1
500g from 40cm
7
ROMANS
72
0
10
162.5854
20
120.0942
0
LINE
8
1
62
7
10
154.1406
20
92.0052
11
157.6442
21
90.07533
0
LINE
8
1
62
7
10
157.6442
20
90.07533
11
158.8021
21
92.17754
0
LINE
8
1
62
7
10
159.1525
20
91.98455
11
158.8021
21
92.17754
0
LINE
8
1
62
7
10
159.1525
20
91.98455
11
160.6964
21
94.78748
0
LINE
8
1
62
7
10
160.6964
20
94.78748
11
160.346
21
94.98046
0
LINE
8
1
62
7
10
160.346
20
94.98046
11
161.5039
21
97.08266
0
LINE
8
1
62
7
10
161.5039
20
97.08266
11
158.0003
21
99.01251
0
LINE
8
1
62
7
10
158.0003
20
99.01251
11
156.8424
21
96.91032
0
LINE
8
1
62
7
10
156.8424
20
96.91032
11
156.492
21
97.1033
0
LINE
8
1
62
7
10
156.492
20
97.1033
11
154.9481
21
94.30037
0
LINE
8
1
62
7
10
154.9481
20
94.30037
11
155.2985
21
94.10738
0
LINE
8
1
62
7
10
155.2985
20
94.10738
11
154.1406
21
92.0052
0
LINE
8
1
62
7
10
159.5385
20
92.68529
11
166.5458
21
88.82557
0
LINE
8
1
62
7
10
167.3178
20
90.22704
11
160.3104
21
94.08672
0
TEXT
8
1
62
7
40
3
1
Third Number
7
ROMANC
72
0
10
149.2019
20
246.4556
0
TEXT
8
1
62
7
40
3
1
(Optional)
7
ROMANC
72
0
10
149.2019
20
241.5985
0
TEXT
8
1
62
7
40
3
1
Protection against
7
ROMANC
72
0
10
149.2019
20
236.7414
0
TEXT
8
1
62
7
40
3
1
Impact
7
ROMANC
72
0
10
149.2019
20
231.8842
0
POLYLINE
8
1
62
7
6
DOT
70
1
66
1
40
0
41
0
0
VERTEX
8
1
10
149.2019
20
218.0681
0
VERTEX
8
1
10
149.2019
20
228.0681
0
VERTEX
8
1
10
159.2019
20
228.0681
0
VERTEX
8
1
10
159.2019
20
218.0681
0
SEQEND
8
1
0
POLYLINE
8
1
62
7
70
1
66
1
40
0.5
41
0.5
0
VERTEX
8
1
10
149.2019
20
168.0681
0
VERTEX
8
1
10
159.2019
20
168.0681
0
VERTEX
8
1
10
159.2019
20
158.0681
0
VERTEX
8
1
10
149.2019
20
158.0681
0
SEQEND
8
1
0
POLYLINE
8
1
62
7
70
1
66
1
40
0.2
41
0.2
0
VERTEX
8
1
10
149.2019
20
188.0681
0
VERTEX
8
1
10
159.2019
20
188.0681
0
VERTEX
8
1
10
159.2019
20
178.0681
0
VERTEX
8
1
10
149.2019
20
178.0681
0
SEQEND
8
1
0
POLYLINE
8
1
62
7
6
HIDDEN
70
1
66
1
40
0
41
0
0
VERTEX
8
1
10
149.2019
20
197.983
0
VERTEX
8
1
10
149.2019
20
207.983
0
VERTEX
8
1
10
159.2019
20
207.983
0
VERTEX
8
1
10
159.2019
20
197.983
0
SEQEND
8
1
0
POLYLINE
8
1
62
7
6
HIDDEN
70
4
66
1
40
0
41
0
0
VERTEX
8
1
10
154.2019
20
187.983
70
16
0
VERTEX
8
1
10
151.9611
20
191.6597
70
16
0
VERTEX
8
1
10
149.9388
20
193.635
70
16
0
VERTEX
8
1
10
147.9165
20
194.2276
70
16
0
VERTEX
8
1
10
145.2556
20
193.7337
70
16
0
VERTEX
8
1
10
143.8719
20
191.6905
70
16
0
VERTEX
8
1
10
154.2019
20
187.983
70
8
0
VERTEX
8
1
10
153.4172
20
189.2402
70
8
0
VERTEX
8
1
10
152.7353
20
190.2722
70
8
0
VERTEX
8
1
10
152.1438
20
191.1058
70
8
0
VERTEX
8
1
10
151.6303
20
191.768
70
8
0
VERTEX
8
1
10
151.1823
20
192.2856
70
8
0
VERTEX
8
1
10
150.7875
20
192.6855
70
8
0
VERTEX
8
1
10
150.4333
20
192.9947
70
8
0
VERTEX
8
1
10
150.1073
20
193.2399
70
8
0
VERTEX
8
1
10
149.7983
20
193.4439
70
8
0
VERTEX
8
1
10
149.4992
20
193.613
70
8
0
VERTEX
8
1
10
149.2043
20
193.749
70
8
0
VERTEX
8
1
10
148.9077
20
193.8541
70
8
0
VERTEX
8
1
10
148.6036
20
193.9302
70
8
0
VERTEX
8
1
10
148.2863
20
193.9795
70
8
0
VERTEX
8
1
10
147.9498
20
194.0038
70
8
0
VERTEX
8
1
10
147.5883
20
194.0053
70
8
0
VERTEX
8
1
10
147.1976
20
193.9826
70
8
0
VERTEX
8
1
10
146.7794
20
193.9206
70
8
0
VERTEX
8
1
10
146.3368
20
193.8008
70
8
0
VERTEX
8
1
10
145.8732
20
193.6049
70
8
0
VERTEX
8
1
10
145.3916
20
193.3143
70
8
0
VERTEX
8
1
10
144.8954
20
192.9107
70
8
0
VERTEX
8
1
10
144.3878
20
192.3756
70
8
0
VERTEX
8
1
10
143.8719
20
191.6905
70
8
0
SEQEND
8
1
0
POLYLINE
8
1
62
7
6
HIDDEN
70
4
66
1
40
0
41
0
0
VERTEX
8
1
10
154.2019
20
207.983
70
16
0
VERTEX
8
1
10
151.9611
20
211.6597
70
16
0
VERTEX
8
1
10
149.9388
20
213.635
70
16
0
VERTEX
8
1
10
147.9165
20
214.2276
70
16
0
VERTEX
8
1
10
145.2556
20
213.7337
70
16
0
VERTEX
8
1
10
143.8719
20
211.6905
70
16
0
VERTEX
8
1
10
154.2019
20
207.983
70
8
0
VERTEX
8
1
10
153.4172
20
209.2402
70
8
0
VERTEX
8
1
10
152.7353
20
210.2722
70
8
0
VERTEX
8
1
10
152.1438
20
211.1058
70
8
0
VERTEX
8
1
10
151.6303
20
211.768
70
8
0
VERTEX
8
1
10
151.1823
20
212.2856
70
8
0
VERTEX
8
1
10
150.7875
20
212.6855
70
8
0
VERTEX
8
1
10
150.4333
20
212.9947
70
8
0
VERTEX
8
1
10
150.1073
20
213.2399
70
8
0
VERTEX
8
1
10
149.7983
20
213.4439
70
8
0
VERTEX
8
1
10
149.4992
20
213.613
70
8
0
VERTEX
8
1
10
149.2043
20
213.749
70
8
0
VERTEX
8
1
10
148.9077
20
213.8541
70
8
0
VERTEX
8
1
10
148.6036
20
213.9302
70
8
0
VERTEX
8
1
10
148.2863
20
213.9795
70
8
0
VERTEX
8
1
10
147.9498
20
214.0038
70
8
0
VERTEX
8
1
10
147.5883
20
214.0053
70
8
0
VERTEX
8
1
10
147.1976
20
213.9826
70
8
0
VERTEX
8
1
10
146.7794
20
213.9206
70
8
0
VERTEX
8
1
10
146.3368
20
213.8008
70
8
0
VERTEX
8
1
10
145.8732
20
213.6049
70
8
0
VERTEX
8
1
10
145.3916
20
213.3143
70
8
0
VERTEX
8
1
10
144.8954
20
212.9107
70
8
0
VERTEX
8
1
10
144.3878
20
212.3756
70
8
0
VERTEX
8
1
10
143.8719
20
211.6905
70
8
0
SEQEND
8
1
0
TEXT
8
1
62
7
40
2
1
Protection from
7
ROMANS
72
0
10
106.2718
20
207.95
0
TEXT
8
1
62
7
40
2
1
liquids falling
7
ROMANS
72
0
10
106.2718
20
204.7119
0
TEXT
8
1
62
7
40
2
1
vertically
7
ROMANS
72
0
10
106.2718
20
201.4738
0
TEXT
8
1
62
7
40
2
1
eg: Condensation
7
ROMANS
72
0
10
106.2718
20
198.2357
0
TEXT
8
1
62
7
40
2
1
Protection from
7
ROMANS
72
0
10
107.9619
20
185.055
0
TEXT
8
1
62
7
40
2
1
liquids falling 15%%d
7
ROMANS
72
0
10
107.9619
20
181.8169
0
TEXT
8
1
62
7
40
2
1
from vertical
7
ROMANS
72
0
10
107.9619
20
178.5788
0
TEXT
8
1
62
7
40
2
1
Protection from
7
ROMANS
72
0
10
107.6783
20
166.1077
0
TEXT
8
1
62
7
40
2
1
liquids falling 60%%d
7
ROMANS
72
0
10
107.6783
20
162.8696
0
TEXT
8
1
62
7
40
2
1
from vertical
7
ROMANS
72
0
10
107.6783
20
159.6315
0
INSERT
8
1
2
IP-G41
10
0
20
0
0
INSERT
8
1
2
IP-G42
10
0
20
0
0
INSERT
8
1
2
IP-G43
10
0
20
0
0
INSERT
8
1
2
IP-G44
10
0
20
0
0
CIRCLE
8
1
62
7
10
142.042
20
188.5916
40
2.5
0
CIRCLE
8
1
62
7
10
142.2971
20
209.4657
40
1.5
0
TEXT
8
1
62
7
40
2
1
0.375 Joule
7
ROMANS
72
0
10
162.5854
20
183.3323
0
TEXT
8
1
62
7
40
2
1
250g from 15cm
7
ROMANS
72
0
10
162.5854
20
180.0942
0
TEXT
8
1
62
7
40
2
1
0.225 Joule
7
ROMANS
72
0
10
162.5854
20
203.2473
0
TEXT
8
1
62
7
40
2
1
150g from 15cm
7
ROMANS
72
0
10
162.5854
20
200.0092
0
TEXT
8
1
62
7
40
2
1
0.5 Joule
7
ROMANS
72
0
10
162.5854
20
163.3323
0
TEXT
8
1
62
7
40
2
1
250g from 20cm
7
ROMANS
72
0
10
162.5854
20
160.0942
0
INSERT
8
1
2
IP-G45
10
0
20
0
0
LINE
8
1
62
7
6
HIDDEN
10
154.2019
20
187.983
11
154.2019
21
195.983
0
TEXT
8
1
62
7
40
2
1
No protection
7
ROMANS
72
0
10
162.5854
20
221.6585
0
LINE
8
1
62
7
6
HIDDEN
10
154.2019
20
207.983
11
154.2019
21
215.983
0
ENDSEC
0
EOF
