0
SECTION
2
HEADER
9
$LTSCALE
40
1
9
$LIMMIN
10
0
20
0
9
$LIMMAX
10
33.81022
20
46.12978
9
$EXTMIN
10
1.50645
20
0.4376432
9
$EXTMAX
10
31.50645
20
42.0437
9
$SNAPMODE
70
0
9
$SNAPUNIT
10
1
20
1
9
$GRIDMODE
70
0
9
$GRIDUNIT
10
1
20
1
9
$ORTHOMODE
70
0
9
$TEXTSTYLE
7
txt
9
$CLAYER
8
1
9
$CECOLOR
62
7
9
$CELTYPE
6
CONTINUOUS
9
$PLINEWID
40
0
9
$OSMODE
70
0
9
$FILLMODE
70
1
9
$CHAMFERA
40
0.5
9
$CHAMFERB
40
0.5
9
$COORDS
70
1
9
$FILLETRAD
40
0.5
9
$INSBASE
10
0
20
0
9
$SPLFRAME
70
0
9
$SPLINESEGS
70
8
0
ENDSEC
0
SECTION
2
TABLES
0
TABLE
2
LTYPE
70
9
0
LTYPE
2
DASHED
70
0
3
__ __ __ __ __ __ __ __ __ __ __ __ __ __ __
72
65
73
2
40
0.75
49
0.5
49
-0.25
0
LTYPE
2
HIDDEN
70
0
3
_ _ _ _ _ _ _ _ _ _ _ _ _ _ _ _ _ _ _ _ _ _ 
72
65
73
2
40
0.25
49
0.125
49
-0.125
0
LTYPE
2
CENTER
70
0
3
____ _ ____ _ ____ _ ____ _ ____ _ ____ _ __
72
65
73
4
40
2
49
1.25
49
-0.25
49
0.25
49
-0.25
0
LTYPE
2
PHANTOM
70
0
3
_____ _ _ _____ _ _ _____ _ _ _____ _ _ ____
72
65
73
6
40
2.5
49
1.25
49
-0.25
49
0.25
49
-0.25
49
0.25
49
-0.25
0
LTYPE
2
DOT
70
0
3
............................................
72
65
73
2
40
0.25
49
0
49
-0.25
0
LTYPE
2
DASHDOT
70
0
3
__ . __ . __ . __ . __ . __ . __ . __ . __ .
72
65
73
4
40
1
49
0.5
49
-0.25
49
0
49
-0.25
0
LTYPE
2
BORDER
70
0
3
__ __ . __ __ . __ __ . __ __ . __ __ . __ _
72
65
73
6
40
1.75
49
0.5
49
-0.25
49
0.5
49
-0.25
49
0
49
-0.25
0
LTYPE
2
DIVIDE
70
0
3
__ . . __ . . __ . . __ . . __ . . __ . . __
72
65
73
6
40
1.25
49
0.5
49
-0.25
49
0
49
-0.25
49
0
49
-0.25
0
LTYPE
2
DOTS
70
0
3
close
72
65
73
2
40
0.1
49
0.05
49
-0.05
0
ENDTAB
0
TABLE
2
STYLE
70
3
0
STYLE
2
ROMANC
70
0
40
0
41
1
50
0
71
0
42
0
3
ROMANC
4

0
STYLE
2
ROMANS
70
0
40
0
41
1
50
0
71
0
42
0
3
ROMANS
4

0
STYLE
2
txt
70
0
40
0
41
1
50
0
71
0
42
0
3
txt
4

0
ENDTAB
0
TABLE
2
LAYER
70
10
0
LAYER
2
1
70
0
62
7
6
CONTINUOUS
0
LAYER
2
2
70
0
62
7
6
CONTINUOUS
0
LAYER
2
3
70
0
62
7
6
CONTINUOUS
0
LAYER
2
4
70
0
62
7
6
CONTINUOUS
0
LAYER
2
5
70
0
62
7
6
CONTINUOUS
0
LAYER
2
6
70
0
62
7
6
CONTINUOUS
0
LAYER
2
7
70
0
62
7
6
CONTINUOUS
0
LAYER
2
8
70
0
62
7
6
CONTINUOUS
0
LAYER
2
9
70
0
62
7
6
CONTINUOUS
0
LAYER
2
10
70
0
62
7
6
CONTINUOUS
0
ENDTAB
0
ENDSEC
0
SECTION
2
BLOCKS
0
BLOCK
8
0
2
SKETCH-G1
70
0
10
0
20
0
0
LINE
8
1
62
7
10
8.86976
20
8.989145
11
7.751313
21
8.989145
0
LINE
8
1
62
7
10
7.751313
20
7.99243
11
8.496943
21
7.99243
0
LINE
8
1
62
7
10
8.056344
20
6.995712
11
7.751313
21
6.995712
0
LINE
8
1
62
7
10
8.86976
20
8.989145
11
7.751313
21
8.989145
0
LINE
8
1
62
7
10
7.751313
20
7.99243
11
8.496943
21
7.99243
0
LINE
8
1
62
7
10
8.056344
20
6.995712
11
7.751313
21
6.995712
0
ENDBLK
8
0
0
BLOCK
8
0
2
SKETCH-G2
70
0
10
0
20
0
0
LINE
8
1
62
7
10
7.663188
20
8.007243
11
7.256481
21
8.007243
0
LINE
8
1
62
7
10
7.663188
20
8.007243
11
7.256481
21
8.007243
0
ENDBLK
8
0
0
BLOCK
8
0
2
SKETCH-G3
70
0
10
0
20
0
0
LINE
8
1
62
7
10
7.303331
20
9.835854
11
7.415831
21
9.835854
0
LINE
8
1
62
7
10
7.490831
20
9.948357
11
7.490831
21
9.835854
0
LINE
8
1
62
7
10
7.303331
20
9.835854
11
7.303331
21
9.760857
0
LINE
8
1
62
7
10
7.303331
20
9.760857
11
7.415831
21
9.760857
0
LINE
8
1
62
7
10
7.415831
20
9.648354
11
7.490831
21
9.648354
0
LINE
8
1
62
7
10
7.490831
20
9.760857
11
7.603331
21
9.760857
0
LINE
8
1
62
7
10
7.603331
20
9.835854
11
7.490831
21
9.835854
0
LINE
8
1
62
7
10
7.415831
20
9.760857
11
7.415831
21
9.648354
0
LINE
8
1
62
7
10
7.490831
20
9.760857
11
7.490831
21
9.648354
0
LINE
8
1
62
7
10
7.603331
20
9.835854
11
7.603331
21
9.760857
0
LINE
8
1
62
7
10
7.415831
20
9.948357
11
7.490831
21
9.948357
0
LINE
8
1
62
7
10
7.415831
20
9.948357
11
7.415831
21
9.835854
0
ENDBLK
8
0
0
BLOCK
8
0
2
SKETCH-G4
70
0
10
0
20
0
0
LINE
8
1
62
7
10
8.86976
20
17.97299
11
7.751313
21
17.97299
0
LINE
8
1
62
7
10
7.751313
20
16.97627
11
8.86976
21
16.97627
0
LINE
8
1
62
7
10
8.86976
20
15.97955
11
7.751313
21
15.97955
0
LINE
8
1
62
7
10
7.751313
20
14.98284
11
8.86976
21
14.98284
0
LINE
8
1
62
7
10
8.564728
20
13.98612
11
7.751313
21
13.98612
0
LINE
8
1
62
7
10
8.86976
20
17.97299
11
7.751313
21
17.97299
0
LINE
8
1
62
7
10
7.751313
20
16.97627
11
8.86976
21
16.97627
0
LINE
8
1
62
7
10
8.86976
20
15.97955
11
7.751313
21
15.97955
0
LINE
8
1
62
7
10
7.751313
20
14.98284
11
8.86976
21
14.98284
0
LINE
8
1
62
7
10
8.564728
20
13.98612
11
7.751313
21
13.98612
0
ENDBLK
8
0
0
BLOCK
8
0
2
SKETCH-G5
70
0
10
0
20
0
0
LINE
8
1
62
7
10
7.663188
20
15.00724
11
7.256481
21
15.00724
0
LINE
8
1
62
7
10
7.663188
20
15.00724
11
7.256481
21
15.00724
0
ENDBLK
8
0
0
BLOCK
8
0
2
SKETCH-G6
70
0
10
0
20
0
0
LINE
8
1
62
7
10
7.303331
20
12.83586
11
7.415831
21
12.83586
0
LINE
8
1
62
7
10
7.490831
20
12.94836
11
7.490831
21
12.83586
0
LINE
8
1
62
7
10
7.303331
20
12.83586
11
7.303331
21
12.76086
0
LINE
8
1
62
7
10
7.303331
20
12.76086
11
7.415831
21
12.76086
0
LINE
8
1
62
7
10
7.415831
20
12.64836
11
7.490831
21
12.64836
0
LINE
8
1
62
7
10
7.490831
20
12.76086
11
7.603331
21
12.76086
0
LINE
8
1
62
7
10
7.603331
20
12.83586
11
7.490831
21
12.83586
0
LINE
8
1
62
7
10
7.415831
20
12.76086
11
7.415831
21
12.64836
0
LINE
8
1
62
7
10
7.490831
20
12.76086
11
7.490831
21
12.64836
0
LINE
8
1
62
7
10
7.603331
20
12.83586
11
7.603331
21
12.76086
0
LINE
8
1
62
7
10
7.415831
20
12.94836
11
7.490831
21
12.94836
0
LINE
8
1
62
7
10
7.415831
20
12.94836
11
7.415831
21
12.83586
0
ENDBLK
8
0
0
BLOCK
8
0
2
SKETCH-G7
70
0
10
0
20
0
0
LINE
8
1
62
7
10
7.663188
20
18.00724
11
7.256481
21
18.00724
0
LINE
8
1
62
7
10
7.663188
20
18.00724
11
7.256481
21
18.00724
0
ENDBLK
8
0
0
BLOCK
8
0
2
SKETCH-G8
70
0
10
0
20
0
0
LINE
8
1
62
7
10
25.48371
20
8.989148
11
24.36526
21
8.989148
0
LINE
8
1
62
7
10
24.7042
20
7.992431
11
25.48371
21
7.992431
0
LINE
8
1
62
7
10
25.48371
20
6.995714
11
25.14478
21
6.995714
0
LINE
8
1
62
7
10
25.48371
20
8.989148
11
24.36526
21
8.989148
0
LINE
8
1
62
7
10
24.7042
20
7.992431
11
25.48371
21
7.992431
0
LINE
8
1
62
7
10
25.48371
20
6.995714
11
25.14478
21
6.995714
0
ENDBLK
8
0
0
BLOCK
8
0
2
SKETCH-G9
70
0
10
0
20
0
0
LINE
8
1
62
7
10
25.97569
20
8.007243
11
25.56898
21
8.007243
0
LINE
8
1
62
7
10
25.97569
20
8.007243
11
25.56898
21
8.007243
0
ENDBLK
8
0
0
BLOCK
8
0
2
SKETCH-G10
70
0
10
0
20
0
0
LINE
8
1
62
7
10
25.61583
20
9.835854
11
25.72833
21
9.835854
0
LINE
8
1
62
7
10
25.80333
20
9.948357
11
25.80333
21
9.835854
0
LINE
8
1
62
7
10
25.61583
20
9.835854
11
25.61583
21
9.760857
0
LINE
8
1
62
7
10
25.61583
20
9.760857
11
25.72833
21
9.760857
0
LINE
8
1
62
7
10
25.72833
20
9.648354
11
25.80333
21
9.648354
0
LINE
8
1
62
7
10
25.80333
20
9.760857
11
25.91583
21
9.760857
0
LINE
8
1
62
7
10
25.91583
20
9.835854
11
25.80333
21
9.835854
0
LINE
8
1
62
7
10
25.72833
20
9.760857
11
25.72833
21
9.648354
0
LINE
8
1
62
7
10
25.80333
20
9.760857
11
25.80333
21
9.648354
0
LINE
8
1
62
7
10
25.91583
20
9.835854
11
25.91583
21
9.760857
0
LINE
8
1
62
7
10
25.72833
20
9.948357
11
25.80333
21
9.948357
0
LINE
8
1
62
7
10
25.72833
20
9.948357
11
25.72833
21
9.835854
0
ENDBLK
8
0
0
BLOCK
8
0
2
SKETCH-G11
70
0
10
0
20
0
0
LINE
8
1
62
7
10
25.48371
20
17.97299
11
24.36526
21
17.97299
0
LINE
8
1
62
7
10
24.36526
20
16.97627
11
25.48371
21
16.97627
0
LINE
8
1
62
7
10
25.48371
20
15.97955
11
24.36526
21
15.97955
0
LINE
8
1
62
7
10
24.36526
20
14.98284
11
25.48371
21
14.98284
0
LINE
8
1
62
7
10
25.48371
20
13.98612
11
24.6364
21
13.98612
0
LINE
8
1
62
7
10
25.48371
20
17.97299
11
24.36526
21
17.97299
0
LINE
8
1
62
7
10
24.36526
20
16.97627
11
25.48371
21
16.97627
0
LINE
8
1
62
7
10
25.48371
20
15.97955
11
24.36526
21
15.97955
0
LINE
8
1
62
7
10
24.36526
20
14.98284
11
25.48371
21
14.98284
0
LINE
8
1
62
7
10
25.48371
20
13.98612
11
24.6364
21
13.98612
0
ENDBLK
8
0
0
BLOCK
8
0
2
SKETCH-G12
70
0
10
0
20
0
0
LINE
8
1
62
7
10
25.97569
20
15.00724
11
25.56898
21
15.00724
0
LINE
8
1
62
7
10
25.97569
20
15.00724
11
25.56898
21
15.00724
0
ENDBLK
8
0
0
BLOCK
8
0
2
SKETCH-G13
70
0
10
0
20
0
0
LINE
8
1
62
7
10
25.61583
20
12.83586
11
25.72833
21
12.83586
0
LINE
8
1
62
7
10
25.80333
20
12.94836
11
25.80333
21
12.83586
0
LINE
8
1
62
7
10
25.61583
20
12.83586
11
25.61583
21
12.76086
0
LINE
8
1
62
7
10
25.61583
20
12.76086
11
25.72833
21
12.76086
0
LINE
8
1
62
7
10
25.72833
20
12.64836
11
25.80333
21
12.64836
0
LINE
8
1
62
7
10
25.80333
20
12.76086
11
25.91583
21
12.76086
0
LINE
8
1
62
7
10
25.91583
20
12.83586
11
25.80333
21
12.83586
0
LINE
8
1
62
7
10
25.72833
20
12.76086
11
25.72833
21
12.64836
0
LINE
8
1
62
7
10
25.80333
20
12.76086
11
25.80333
21
12.64836
0
LINE
8
1
62
7
10
25.91583
20
12.83586
11
25.91583
21
12.76086
0
LINE
8
1
62
7
10
25.72833
20
12.94836
11
25.80333
21
12.94836
0
LINE
8
1
62
7
10
25.72833
20
12.94836
11
25.72833
21
12.83586
0
ENDBLK
8
0
0
BLOCK
8
0
2
SKETCH-G14
70
0
10
0
20
0
0
LINE
8
1
62
7
10
25.97569
20
18.00724
11
25.56898
21
18.00724
0
LINE
8
1
62
7
10
25.97569
20
18.00724
11
25.56898
21
18.00724
0
ENDBLK
8
0
0
ENDSEC
0
SECTION
2
ENTITIES
0
TEXT
8
1
62
7
40
1
1
19 Inch Rack Standard
7
ROMANC
72
1
10
7.255084
20
40.64582
11
16.94556
21
40.64582
0
POLYLINE
8
1
62
7
70
1
66
1
40
0
41
0
0
VERTEX
8
1
10
1.50645
20
40.0437
0
VERTEX
8
1
10
1.50645
20
42.0437
0
VERTEX
8
1
10
31.50645
20
42.0437
0
VERTEX
8
1
10
31.50645
20
40.0437
0
SEQEND
8
1
0
POLYLINE
8
1
62
7
70
1
66
1
40
0
41
0
0
VERTEX
8
1
10
1.50645
20
1.043697
0
VERTEX
8
1
10
1.50645
20
39.0437
0
VERTEX
8
1
10
31.50645
20
39.0437
0
VERTEX
8
1
10
31.50645
20
1.043697
0
SEQEND
8
1
0
LINE
8
1
62
7
10
8.853899
20
8.798356
11
24.36526
21
8.798356
0
LINE
8
1
62
7
10
9.255832
20
15.0517
11
23.96333
21
15.0517
0
POLYLINE
8
1
62
7
70
1
66
1
40
0
41
0
0
VERTEX
8
1
10
6.859581
20
18.29836
0
VERTEX
8
1
10
6.859581
20
19.19835
42
-0.4142136
0
VERTEX
8
1
10
6.959581
20
19.29836
0
VERTEX
8
1
10
26.25958
20
19.29836
42
-0.4142135
0
VERTEX
8
1
10
26.35958
20
19.19835
0
VERTEX
8
1
10
26.35958
20
18.29836
0
SEQEND
8
1
0
LINE
8
1
62
7
10
9.255832
20
15.6767
11
23.96333
21
15.6767
0
LINE
8
1
62
7
10
8.886078
20
20.73017
11
24.33308
21
20.73017
0
TEXT
8
1
62
7
6
DOT
40
0.4
1
1) Front panel width must be 19" (482.6 mm).
7
ROMANS
72
0
10
2.913492
20
37.88277
0
TEXT
8
1
62
7
6
DOT
40
0.4
1
2) Horizontal spacing of front panel holes must be 18 5/16" (465.1 mm).
7
ROMANS
72
0
10
2.913492
20
37.23516
0
TEXT
8
1
62
7
6
DOT
40
0.4
1
   ie: holes must be 11/32 " (8.73 mm) from panel edge
7
ROMANS
72
0
10
2.913492
20
36.58754
0
TEXT
8
1
62
7
6
DOT
40
0.4
1
3) Panel height must be an integral number of rack units (RU).
7
ROMANS
72
0
10
2.913492
20
35.93992
0
TEXT
8
1
62
7
6
DOT
40
0.4
1
   One rack unit is 1.75" (44.45 mm).
7
ROMANS
72
0
10
2.913492
20
35.2923
0
TEXT
8
1
62
7
6
DOT
40
0.4
1
4) Equipment depth is not defined.
7
ROMANS
72
0
10
2.913492
20
34.64468
0
TEXT
8
1
62
7
6
DOT
40
0.4
1
6) Panel is attached using M6 phillips head screws, Clip-in M6 cage nuts
7
ROMANS
72
0
10
2.913492
20
33.34944
0
LINE
8
1
62
7
10
7.453331
20
10.48586
11
25.76583
21
10.48586
0
POLYLINE
8
1
62
7
70
1
66
1
40
0
41
0
0
VERTEX
8
1
10
7.109581
20
9.651699
0
VERTEX
8
1
10
7.109581
20
12.9517
42
-0.4142136
0
VERTEX
8
1
10
7.209581
20
13.0517
0
VERTEX
8
1
10
26.00958
20
13.0517
42
-0.4142137
0
VERTEX
8
1
10
26.10958
20
12.9517
0
VERTEX
8
1
10
26.10958
20
9.651699
42
-0.4142136
0
VERTEX
8
1
10
26.00958
20
9.5517
0
VERTEX
8
1
10
7.209581
20
9.5517
42
-0.4142135
0
SEQEND
8
1
0
LINE
8
1
62
7
10
7.109581
20
11.9517
11
26.10958
21
11.9517
0
POLYLINE
8
1
62
7
70
1
66
1
40
0
41
0
0
VERTEX
8
1
10
6.859581
20
3.398356
0
VERTEX
8
1
10
6.859581
20
4.298356
0
VERTEX
8
1
10
26.35958
20
4.298356
0
VERTEX
8
1
10
26.35958
20
3.398356
42
-0.4142136
0
VERTEX
8
1
10
26.25958
20
3.298356
0
VERTEX
8
1
10
6.959581
20
3.298356
42
-0.4142135
0
SEQEND
8
1
0
LINE
8
1
62
7
10
7.751313
20
5.798356
11
25.46785
21
5.798356
0
LINE
8
1
62
7
10
7.453331
20
2.052391
11
25.76583
21
2.052391
0
LINE
8
1
62
7
10
25.98401
20
22.42768
11
27.68401
21
22.42768
0
TEXT
8
1
62
7
40
0.3
50
90
1
5.75"
7
txt
72
0
10
27.05276
20
26.25267
0
TEXT
8
1
62
7
6
DOT
40
0.3
50
90
1
146.05 mm
7
ROMANS
72
1
10
27.61293
20
25.51252
11
27.61293
21
26.80538
0
TEXT
8
1
62
7
40
0.3
1
5 RU
7
ROMANS
72
0
10
26.09038
20
31.45995
0
LINE
8
1
62
7
10
25.98401
20
31.17768
11
27.68401
21
31.17768
0
TEXT
8
1
62
7
40
0.3
50
90
1
1.50"
7
txt
72
0
10
27.05276
20
29.95268
0
TEXT
8
1
62
7
6
DOT
40
0.3
50
90
1
38.1mm
7
ROMANS
72
1
10
27.54821
20
29.41839
11
27.54821
21
30.29696
0
TEXT
8
1
62
7
6
DOT
40
0.4
1
   are mounted on the frame. 3/8" square holes are provided for these.
7
ROMANS
72
0
10
2.913492
20
32.70182
0
TEXT
8
1
62
7
40
0.3
1
Rev 1.1  3 May 2003
7
ROMANS
72
0
10
26.0675
20
0.5376432
0
TEXT
8
1
62
7
6
DOT
40
0.4
1
5) Equipment width should be less than about 440mm.
7
ROMANS
72
0
10
2.913492
20
33.99706
0
LINE
8
1
62
7
10
7.136481
20
14.35151
11
6.106481
21
14.35151
0
LINE
8
1
62
7
10
7.136481
20
14.85151
11
6.106481
21
14.85151
0
LINE
8
1
62
7
10
7.136481
20
15.24521
11
6.106481
21
15.24521
0
LINE
8
1
62
7
10
7.136481
20
16.99521
11
6.106481
21
16.99521
0
TEXT
8
1
62
7
6
DOT
40
0.3
1
44.45 mm
7
ROMANS
72
1
10
2.946729
20
15.93719
11
4.118158
21
15.93719
0
LINE
8
1
62
7
10
6.256481
20
15.24521
11
6.256481
21
16.99521
0
TEXT
8
1
62
7
6
DOT
40
0.3
1
12.7 mm
7
ROMANS
72
1
10
3.337245
20
14.42528
11
4.344388
21
14.42528
0
TEXT
8
1
62
7
40
0.3
50
90
1
0.50"
7
txt
72
0
10
6.106481
20
14.10151
0
LINE
8
1
62
7
10
6.256481
20
14.35151
11
6.256481
21
14.85151
0
LINE
8
1
62
7
10
6.29648
20
14.59151
11
6.256481
21
14.35151
0
LINE
8
1
62
7
10
6.216482
20
14.59151
11
6.256481
21
14.35151
0
LINE
8
1
62
7
10
6.29648
20
14.61151
11
6.256481
21
14.85151
0
LINE
8
1
62
7
10
6.216482
20
14.61151
11
6.256481
21
14.85151
0
LINE
8
1
62
7
10
6.29648
20
15.48521
11
6.256481
21
15.24521
0
LINE
8
1
62
7
10
6.216482
20
15.48521
11
6.256481
21
15.24521
0
TEXT
8
1
62
7
40
0.3
50
90
1
1.75"
7
txt
72
0
10
6.106481
20
15.62021
0
LINE
8
1
62
7
10
6.29648
20
16.75521
11
6.256481
21
16.99521
0
LINE
8
1
62
7
10
6.216482
20
16.75521
11
6.256481
21
16.99521
0
LINE
8
1
62
7
10
7.453331
20
10.10586
11
7.453331
21
10.63586
0
LINE
8
1
62
7
10
6.859581
20
18.29836
11
6.859581
21
4.298356
0
LINE
8
1
62
7
10
7.751313
20
9.5517
11
7.751313
21
4.298356
0
LINE
8
1
62
7
10
7.453331
20
4.428356
11
7.453331
21
1.902391
0
LINE
8
1
62
7
10
7.693331
20
2.012392
11
7.453331
21
2.052391
0
LINE
8
1
62
7
10
7.693331
20
2.09239
11
7.453331
21
2.052391
0
POLYLINE
8
1
62
7
70
1
66
1
40
0
41
0
0
VERTEX
8
1
10
7.256481
20
4.351506
0
VERTEX
8
1
10
7.256481
20
4.745206
0
VERTEX
8
1
10
7.650181
20
4.745206
0
VERTEX
8
1
10
7.650181
20
4.351506
0
SEQEND
8
1
0
LINE
8
1
62
7
10
7.751313
20
5.918355
11
7.751313
21
5.948356
0
LINE
8
1
62
7
10
7.991313
20
5.758357
11
7.751313
21
5.798356
0
LINE
8
1
62
7
10
7.991313
20
5.838355
11
7.751313
21
5.798356
0
POLYLINE
8
1
62
7
70
1
66
1
40
0
41
0
0
VERTEX
8
1
10
7.751313
20
6.310469
0
VERTEX
8
1
10
8.853899
20
8.798356
0
VERTEX
8
1
10
8.853899
20
9.5517
0
VERTEX
8
1
10
7.751313
20
9.5517
0
SEQEND
8
1
0
INSERT
8
1
2
SKETCH-G1
10
0
20
0
0
LINE
8
1
62
7
10
8.853899
20
8.798356
11
7.751313
21
6.310469
0
POLYLINE
8
1
62
7
70
1
66
1
40
0
41
0
0
VERTEX
8
1
10
7.256481
20
5.601506
0
VERTEX
8
1
10
7.256481
20
5.995206
0
VERTEX
8
1
10
7.650181
20
5.995206
0
VERTEX
8
1
10
7.650181
20
5.601506
0
SEQEND
8
1
0
POLYLINE
8
1
62
7
70
1
66
1
40
0
41
0
0
VERTEX
8
1
10
7.256481
20
5.995206
0
VERTEX
8
1
10
7.611594
20
5.995206
0
VERTEX
8
1
10
7.437113
20
5.601506
0
VERTEX
8
1
10
7.256481
20
5.601506
0
SEQEND
8
1
0
POLYLINE
8
1
62
7
70
1
66
1
40
0
41
0
0
VERTEX
8
1
10
7.256481
20
9.101506
0
VERTEX
8
1
10
7.256481
20
9.495206
0
VERTEX
8
1
10
7.650181
20
9.495206
0
VERTEX
8
1
10
7.650181
20
9.101506
0
SEQEND
8
1
0
POLYLINE
8
1
62
7
70
1
66
1
40
0
41
0
0
VERTEX
8
1
10
7.256481
20
9.495206
0
VERTEX
8
1
10
7.650181
20
9.495206
0
VERTEX
8
1
10
7.650181
20
9.101506
0
VERTEX
8
1
10
7.256481
20
9.101506
0
SEQEND
8
1
0
POLYLINE
8
1
62
7
70
1
66
1
40
0
41
0
0
VERTEX
8
1
10
7.256481
20
6.101506
0
VERTEX
8
1
10
7.256481
20
6.495206
0
VERTEX
8
1
10
7.650181
20
6.495206
0
VERTEX
8
1
10
7.650181
20
6.101506
0
SEQEND
8
1
0
POLYLINE
8
1
62
7
70
1
66
1
40
0
41
0
0
VERTEX
8
1
10
7.256481
20
6.495206
0
VERTEX
8
1
10
7.650181
20
6.495206
0
VERTEX
8
1
10
7.650181
20
6.101506
0
VERTEX
8
1
10
7.256481
20
6.101506
0
SEQEND
8
1
0
POLYLINE
8
1
62
7
70
1
66
1
40
0
41
0
0
VERTEX
8
1
10
7.256481
20
7.851506
0
VERTEX
8
1
10
7.256481
20
8.245206
0
VERTEX
8
1
10
7.650181
20
8.245206
0
VERTEX
8
1
10
7.650181
20
7.851506
0
SEQEND
8
1
0
POLYLINE
8
1
62
7
70
1
66
1
40
0
41
0
0
VERTEX
8
1
10
7.256481
20
8.245206
0
VERTEX
8
1
10
7.650181
20
8.245206
0
VERTEX
8
1
10
7.650181
20
7.851506
0
VERTEX
8
1
10
7.256481
20
7.851506
0
SEQEND
8
1
0
INSERT
8
1
2
SKETCH-G2
10
0
20
0
0
POLYLINE
8
1
62
7
70
1
66
1
40
0
41
0
0
VERTEX
8
1
10
7.256481
20
7.351506
0
VERTEX
8
1
10
7.256481
20
7.745206
0
VERTEX
8
1
10
7.650181
20
7.745206
0
VERTEX
8
1
10
7.650181
20
7.351506
0
SEQEND
8
1
0
POLYLINE
8
1
62
7
70
1
66
1
40
0
41
0
0
VERTEX
8
1
10
7.256481
20
7.745206
0
VERTEX
8
1
10
7.650181
20
7.745206
0
VERTEX
8
1
10
7.650181
20
7.351506
0
VERTEX
8
1
10
7.256481
20
7.351506
0
SEQEND
8
1
0
CIRCLE
8
1
62
7
10
7.453331
20
9.798357
40
0.1875
0
INSERT
8
1
2
SKETCH-G3
10
0
20
0
0
LINE
8
1
62
7
10
8.853899
20
9.5517
11
8.853899
21
8.798356
0
POLYLINE
8
1
62
7
70
1
66
1
40
0
41
0
0
VERTEX
8
1
10
7.751313
20
18.29836
0
VERTEX
8
1
10
7.751313
20
13.0517
0
VERTEX
8
1
10
7.948111
20
13.0517
0
VERTEX
8
1
10
8.853899
20
14.437
0
VERTEX
8
1
10
8.853899
20
18.29836
0
SEQEND
8
1
0
INSERT
8
1
2
SKETCH-G4
10
0
20
0
0
LINE
8
1
62
7
10
7.751313
20
18.29836
11
7.751313
21
13.0517
0
LINE
8
1
62
7
10
8.853899
20
18.29836
11
8.853899
21
14.437
0
LINE
8
1
62
7
10
9.255832
20
15.3017
11
9.255832
21
15.8017
0
LINE
8
1
62
7
10
7.693331
20
10.44586
11
7.453331
21
10.48586
0
LINE
8
1
62
7
10
7.693331
20
10.52586
11
7.453331
21
10.48586
0
LINE
8
1
62
7
10
7.109581
20
11.0717
11
7.109581
21
12.1017
0
LINE
8
1
62
7
10
7.349581
20
11.9117
11
7.109581
21
11.9517
0
LINE
8
1
62
7
10
7.349581
20
11.9917
11
7.109581
21
11.9517
0
LINE
8
1
62
7
10
9.255832
20
15.0517
11
7.948111
21
13.0517
0
TEXT
8
1
62
7
40
0.3
50
90
1
0.25"
7
txt
72
0
10
9.05333
20
12.40003
0
LINE
8
1
62
7
10
8.603331
20
12.79836
11
8.603331
21
13.0517
0
LINE
8
1
62
7
10
7.72333
20
12.79836
11
8.75333
21
12.79836
0
LINE
8
1
62
7
10
7.72333
20
13.0517
11
8.75333
21
13.0517
0
LINE
8
1
62
7
10
8.64333
20
12.55836
11
8.603331
21
12.79836
0
LINE
8
1
62
7
10
8.563332
20
12.55836
11
8.603331
21
12.79836
0
LINE
8
1
62
7
10
8.64333
20
13.2917
11
8.603331
21
13.0517
0
LINE
8
1
62
7
10
8.563332
20
13.2917
11
8.603331
21
13.0517
0
POLYLINE
8
1
62
7
70
1
66
1
40
0
41
0
0
VERTEX
8
1
10
7.256481
20
14.35151
0
VERTEX
8
1
10
7.256481
20
14.74521
0
VERTEX
8
1
10
7.650181
20
14.74521
0
VERTEX
8
1
10
7.650181
20
14.35151
0
SEQEND
8
1
0
POLYLINE
8
1
62
7
70
1
66
1
40
0
41
0
0
VERTEX
8
1
10
7.256481
20
14.74521
0
VERTEX
8
1
10
7.650181
20
14.74521
0
VERTEX
8
1
10
7.650181
20
14.35151
0
VERTEX
8
1
10
7.256481
20
14.35151
0
SEQEND
8
1
0
POLYLINE
8
1
62
7
70
1
66
1
40
0
41
0
0
VERTEX
8
1
10
7.256481
20
14.85151
0
VERTEX
8
1
10
7.256481
20
15.24521
0
VERTEX
8
1
10
7.650181
20
15.24521
0
VERTEX
8
1
10
7.650181
20
14.85151
0
SEQEND
8
1
0
POLYLINE
8
1
62
7
70
1
66
1
40
0
41
0
0
VERTEX
8
1
10
7.256481
20
15.24521
0
VERTEX
8
1
10
7.650181
20
15.24521
0
VERTEX
8
1
10
7.650181
20
14.85151
0
VERTEX
8
1
10
7.256481
20
14.85151
0
SEQEND
8
1
0
INSERT
8
1
2
SKETCH-G5
10
0
20
0
0
POLYLINE
8
1
62
7
70
1
66
1
40
0
41
0
0
VERTEX
8
1
10
7.256481
20
13.10151
0
VERTEX
8
1
10
7.256481
20
13.49521
0
VERTEX
8
1
10
7.650181
20
13.49521
0
VERTEX
8
1
10
7.650181
20
13.10151
0
SEQEND
8
1
0
POLYLINE
8
1
62
7
70
1
66
1
40
0
41
0
0
VERTEX
8
1
10
7.256481
20
13.49521
0
VERTEX
8
1
10
7.650181
20
13.49521
0
VERTEX
8
1
10
7.650181
20
13.10151
0
VERTEX
8
1
10
7.256481
20
13.10151
0
SEQEND
8
1
0
CIRCLE
8
1
62
7
10
7.453331
20
12.79836
40
0.1875
0
INSERT
8
1
2
SKETCH-G6
10
0
20
0
0
TEXT
8
1
62
7
40
0.3
50
90
1
6.35 mm
7
ROMANS
72
1
10
9.544315
20
11.95838
11
9.544315
21
12.97981
0
LINE
8
1
62
7
10
8.827758
20
20.71141
11
6.859581
21
19.29836
0
POLYLINE
8
1
62
7
70
1
66
1
40
0
41
0
0
VERTEX
8
1
10
7.256481
20
16.99521
0
VERTEX
8
1
10
7.256481
20
16.60151
0
VERTEX
8
1
10
7.650181
20
16.60151
0
VERTEX
8
1
10
7.650181
20
16.99521
0
SEQEND
8
1
0
POLYLINE
8
1
62
7
70
1
66
1
40
0
41
0
0
VERTEX
8
1
10
7.256481
20
16.60151
0
VERTEX
8
1
10
7.256481
20
16.99521
0
VERTEX
8
1
10
7.650181
20
16.99521
0
VERTEX
8
1
10
7.650181
20
16.60151
0
SEQEND
8
1
0
POLYLINE
8
1
62
7
70
1
66
1
40
0
41
0
0
VERTEX
8
1
10
7.256481
20
16.10151
0
VERTEX
8
1
10
7.256481
20
16.49521
0
VERTEX
8
1
10
7.650181
20
16.49521
0
VERTEX
8
1
10
7.650181
20
16.10151
0
SEQEND
8
1
0
POLYLINE
8
1
62
7
70
1
66
1
40
0
41
0
0
VERTEX
8
1
10
7.256481
20
16.49521
0
VERTEX
8
1
10
7.650181
20
16.49521
0
VERTEX
8
1
10
7.650181
20
16.10151
0
VERTEX
8
1
10
7.256481
20
16.10151
0
SEQEND
8
1
0
POLYLINE
8
1
62
7
70
1
66
1
40
0
41
0
0
VERTEX
8
1
10
7.256481
20
17.85151
0
VERTEX
8
1
10
7.256481
20
18.24521
0
VERTEX
8
1
10
7.650181
20
18.24521
0
VERTEX
8
1
10
7.650181
20
17.85151
0
SEQEND
8
1
0
POLYLINE
8
1
62
7
70
1
66
1
40
0
41
0
0
VERTEX
8
1
10
7.256481
20
17.85151
0
VERTEX
8
1
10
7.650181
20
17.85151
0
VERTEX
8
1
10
7.650181
20
18.24521
0
VERTEX
8
1
10
7.256481
20
18.24521
0
SEQEND
8
1
0
INSERT
8
1
2
SKETCH-G7
10
0
20
0
0
LINE
8
1
62
7
10
9.495987
20
15.71601
11
9.255832
21
15.6767
0
LINE
8
1
62
7
10
9.255832
20
15.6767
11
9.495987
21
15.63585
0
ARC
8
1
62
7
10
8.886078
20
20.63017
40
0.1
50
90
51
125.6764
0
LINE
8
1
62
7
10
5.957313
20
24.76939
11
7.957313
21
24.76939
0
LINE
8
1
62
7
10
5.957313
20
25.76939
11
7.957313
21
25.76939
0
LINE
8
1
62
7
10
5.957313
20
28.26939
11
7.957313
21
28.26939
0
LINE
8
1
62
7
10
5.957313
20
28.76939
11
7.957313
21
28.76939
0
LINE
8
1
62
7
10
5.957313
20
29.26939
11
7.957313
21
29.26939
0
LINE
8
1
62
7
10
6.215563
20
24.24907
11
7.325733
21
23.36094
0
TEXT
8
1
62
7
6
DOT
40
0.3
1
2.7 mm
7
ROMANS
72
2
10
1.877239
20
28.68945
11
3.648668
21
28.68945
0
LINE
8
1
62
7
10
4.669814
20
22.76939
11
4.669814
21
30.76939
0
LINE
8
1
62
7
10
6.453278
20
22.76939
11
6.453278
21
30.76939
0
POLYLINE
8
1
62
7
70
1
66
1
40
0
41
0
0
VERTEX
8
1
10
5.463614
20
25.37569
0
VERTEX
8
1
10
5.463614
20
26.1631
0
VERTEX
8
1
10
6.251011
20
26.1631
0
VERTEX
8
1
10
6.251011
20
25.37569
0
SEQEND
8
1
0
LINE
8
1
62
7
10
5.463614
20
26.1631
11
6.251011
21
25.37569
0
LINE
8
1
62
7
10
5.463614
20
25.37569
11
6.251011
21
26.1631
0
POLYLINE
8
1
62
7
70
1
66
1
40
0
41
0
0
VERTEX
8
1
10
5.463614
20
24.37569
0
VERTEX
8
1
10
5.463614
20
25.1631
0
VERTEX
8
1
10
6.251011
20
25.1631
0
VERTEX
8
1
10
6.251011
20
24.37569
0
SEQEND
8
1
0
LINE
8
1
62
7
10
5.463614
20
24.37569
11
6.251011
21
25.1631
0
LINE
8
1
62
7
10
5.463614
20
25.1631
11
6.251011
21
24.37569
0
LINE
8
1
62
7
10
5.363614
20
28.6631
11
3.863614
21
28.6631
0
LINE
8
1
62
7
10
5.363614
20
28.87692
11
3.863614
21
28.87692
0
LINE
8
1
62
7
10
4.024302
20
28.42294
11
4.063614
21
28.6631
0
LINE
8
1
62
7
10
4.063614
20
28.6631
11
4.104464
21
28.42294
0
LINE
8
1
62
7
10
4.063614
20
28.6631
11
4.063614
21
28.1631
0
LINE
8
1
62
7
10
4.024302
20
29.11584
11
4.063614
21
28.87569
0
LINE
8
1
62
7
10
4.063614
20
28.87569
11
4.104464
21
29.11584
0
LINE
8
1
62
7
10
4.063614
20
28.87569
11
4.063614
21
29.37569
0
POLYLINE
8
1
62
7
70
1
66
1
40
0
41
0
0
VERTEX
8
1
10
5.463614
20
27.87569
0
VERTEX
8
1
10
5.463614
20
28.6631
0
VERTEX
8
1
10
6.251011
20
28.6631
0
VERTEX
8
1
10
6.251011
20
27.87569
0
SEQEND
8
1
0
LINE
8
1
62
7
10
5.463614
20
28.6631
11
6.251011
21
27.87569
0
LINE
8
1
62
7
10
6.251011
20
28.6631
11
5.463614
21
27.87569
0
POLYLINE
8
1
62
7
70
1
66
1
40
0
41
0
0
VERTEX
8
1
10
5.463614
20
28.87569
0
VERTEX
8
1
10
5.463614
20
29.6631
0
VERTEX
8
1
10
6.251011
20
29.6631
0
VERTEX
8
1
10
6.251011
20
28.87569
0
SEQEND
8
1
0
LINE
8
1
62
7
10
5.463614
20
29.6631
11
6.251011
21
28.87569
0
LINE
8
1
62
7
10
6.251011
20
29.6631
11
5.463614
21
28.87569
0
TEXT
8
1
62
7
6
DOT
40
0.4
1

7
ROMANS
72
0
10
2.913492
20
32.0542
0
TEXT
8
1
62
7
6
DOT
40
0.3
1
12.7 mm
7
ROMANS
72
1
10
9.284367
20
25.10932
11
10.29151
21
25.10932
0
TEXT
8
1
62
7
6
DOT
40
0.3
1
31.75 mm
7
ROMANS
72
1
10
9.568051
20
26.85932
11
10.73948
21
26.85932
0
TEXT
8
1
62
7
6
DOT
40
0.3
1
6.35 mm
7
ROMANS
72
1
10
9.68086
20
28.40047
11
10.7023
21
28.40047
0
TEXT
8
1
62
7
6
DOT
40
0.3
1
6.35 mm
7
ROMANS
72
1
10
9.68086
20
28.90047
11
10.7023
21
28.90047
0
TEXT
8
1
62
7
6
DOT
40
0.3
1
0.375"  9.525 mm
7
ROMANS
72
1
10
7.277917
20
22.86493
11
9.499347
21
22.86493
0
TEXT
8
1
62
7
6
DOT
40
0.3
1
Square Hole
7
ROMANS
72
1
10
8.324307
20
22.2312
11
9.68145
21
22.2312
0
LINE
8
1
62
7
10
7.757313
20
28.26939
11
7.757313
21
25.76939
0
TEXT
8
1
62
7
6
DOT
40
0.3
1
0.5"
7
ROMANS
72
1
10
8.018811
20
25.10932
11
8.41167
21
25.10932
0
LINE
8
1
62
7
10
7.718
20
25.00954
11
7.757313
21
24.76939
0
LINE
8
1
62
7
10
7.757313
20
24.76939
11
7.798162
21
25.00954
0
LINE
8
1
62
7
10
7.757313
20
25.76939
11
7.757313
21
24.76939
0
LINE
8
1
62
7
10
7.718
20
25.52924
11
7.757313
21
25.76939
0
LINE
8
1
62
7
10
7.757313
20
25.76939
11
7.798162
21
25.52924
0
LINE
8
1
62
7
10
7.718
20
26.00954
11
7.757313
21
25.76939
0
LINE
8
1
62
7
10
7.757313
20
25.76939
11
7.798162
21
26.00954
0
TEXT
8
1
62
7
6
DOT
40
0.3
1
0.25"
7
ROMANS
72
1
10
8.034978
20
28.85932
11
8.570692
21
28.85932
0
TEXT
8
1
62
7
6
DOT
40
0.3
1
0.25"
7
ROMANS
72
1
10
8.034978
20
28.35932
11
8.570692
21
28.35932
0
TEXT
8
1
62
7
6
DOT
40
0.3
1
1.25"
7
ROMANS
72
1
10
8.077834
20
26.85932
11
8.59212
21
26.85932
0
LINE
8
1
62
7
10
7.757313
20
29.26939
11
7.757313
21
28.76939
0
LINE
8
1
62
7
10
7.718
20
29.00954
11
7.757313
21
28.76939
0
LINE
8
1
62
7
10
7.757313
20
28.76939
11
7.798162
21
29.00954
0
LINE
8
1
62
7
10
7.757313
20
28.76939
11
7.757313
21
28.26939
0
LINE
8
1
62
7
10
7.718
20
28.50954
11
7.757313
21
28.26939
0
LINE
8
1
62
7
10
7.757313
20
28.26939
11
7.798162
21
28.50954
0
LINE
8
1
62
7
10
7.718
20
28.02924
11
7.757313
21
28.26939
0
LINE
8
1
62
7
10
7.757313
20
28.26939
11
7.798162
21
28.02924
0
LINE
8
1
62
7
10
7.718
20
28.52924
11
7.757313
21
28.76939
0
LINE
8
1
62
7
10
7.757313
20
28.76939
11
7.798162
21
28.52924
0
LINE
8
1
62
7
10
7.718
20
29.02924
11
7.757313
21
29.26939
0
LINE
8
1
62
7
10
7.757313
20
29.26939
11
7.798162
21
29.02924
0
TEXT
8
1
62
7
6
DOT
40
0.3
1
6.35 mm
7
ROMANS
72
1
10
11.17466
20
30.9284
11
12.1961
21
30.9284
0
TEXT
8
1
62
7
40
0.3
1
465.1 mm
7
ROMANS
72
1
10
15.39464
20
10.08956
11
16.56607
21
10.08956
0
TEXT
8
1
62
7
40
0.3
1
465.1 mm
7
ROMANS
72
1
10
15.43739
20
2.164521
11
16.60882
21
2.164521
0
TEXT
8
1
62
7
40
0.3
1
450mm
7
ROMANS
72
1
10
15.786
20
5.335358
11
16.59303
21
5.335358
0
TEXT
8
1
62
7
40
0.3
1
(Approx)
7
ROMANS
72
1
10
15.70732
20
4.849644
11
16.60018
21
4.849644
0
TEXT
8
1
62
7
40
0.3
1
17.72"
7
txt
72
0
10
15.95958
20
5.948356
0
TEXT
8
1
62
7
40
0.3
1
18.31"
7
txt
72
0
10
16.00958
20
1.602391
0
TEXT
8
1
62
7
40
0.3
1
440 mm Max
7
ROMANS
72
1
10
14.78136
20
15.92342
11
16.32422
21
15.92342
0
TEXT
8
1
62
7
40
0.3
1
18.31"
7
txt
72
0
10
16.00958
20
10.63586
0
TEXT
8
1
62
7
40
0.3
1
482.6 mm
7
ROMANS
72
1
10
15.44305
20
11.56215
11
16.61448
21
11.56215
0
TEXT
8
1
62
7
40
0.3
1
19.00"
7
txt
72
0
10
16.00958
20
12.1017
0
LINE
8
1
62
7
10
25.76583
20
10.10586
11
25.76583
21
10.63586
0
LINE
8
1
62
7
10
26.35958
20
18.29836
11
26.35958
21
4.298356
0
LINE
8
1
62
7
10
25.46785
20
9.5517
11
25.46785
21
4.298356
0
LINE
8
1
62
7
10
25.76583
20
4.428356
11
25.76583
21
1.902391
0
LINE
8
1
62
7
10
25.52583
20
2.012392
11
25.76583
21
2.052391
0
LINE
8
1
62
7
10
25.52583
20
2.09239
11
25.76583
21
2.052391
0
POLYLINE
8
1
62
7
70
1
66
1
40
0
41
0
0
VERTEX
8
1
10
25.56898
20
4.351506
0
VERTEX
8
1
10
25.56898
20
4.745206
0
VERTEX
8
1
10
25.96268
20
4.745206
0
VERTEX
8
1
10
25.96268
20
4.351506
0
SEQEND
8
1
0
LINE
8
1
62
7
10
25.46785
20
5.918355
11
25.46785
21
5.948356
0
LINE
8
1
62
7
10
25.22785
20
5.758357
11
25.46785
21
5.798356
0
LINE
8
1
62
7
10
25.22785
20
5.838355
11
25.46785
21
5.798356
0
LINE
8
1
62
7
10
24.36526
20
8.798356
11
25.46785
21
6.310472
0
POLYLINE
8
1
62
7
70
1
66
1
40
0
41
0
0
VERTEX
8
1
10
24.36526
20
9.5517
0
VERTEX
8
1
10
24.36526
20
8.798356
0
VERTEX
8
1
10
25.46785
20
6.310472
0
VERTEX
8
1
10
25.46785
20
9.5517
0
SEQEND
8
1
0
INSERT
8
1
2
SKETCH-G8
10
0
20
0
0
LINE
8
1
62
7
10
24.36526
20
8.798356
11
24.36526
21
9.5517
0
POLYLINE
8
1
62
7
70
1
66
1
40
0
41
0
0
VERTEX
8
1
10
25.96268
20
5.601506
0
VERTEX
8
1
10
25.96268
20
5.995206
0
VERTEX
8
1
10
25.56898
20
5.995206
0
VERTEX
8
1
10
25.56898
20
5.601506
0
SEQEND
8
1
0
POLYLINE
8
1
62
7
70
1
66
1
40
0
41
0
0
VERTEX
8
1
10
25.96268
20
5.995206
0
VERTEX
8
1
10
25.60757
20
5.995206
0
VERTEX
8
1
10
25.78205
20
5.601506
0
VERTEX
8
1
10
25.96268
20
5.601506
0
SEQEND
8
1
0
POLYLINE
8
1
62
7
70
1
66
1
40
0
41
0
0
VERTEX
8
1
10
25.96268
20
9.101506
0
VERTEX
8
1
10
25.96268
20
9.495206
0
VERTEX
8
1
10
25.56898
20
9.495206
0
VERTEX
8
1
10
25.56898
20
9.101506
0
SEQEND
8
1
0
POLYLINE
8
1
62
7
70
1
66
1
40
0
41
0
0
VERTEX
8
1
10
25.96268
20
9.495206
0
VERTEX
8
1
10
25.56898
20
9.495206
0
VERTEX
8
1
10
25.56898
20
9.101506
0
VERTEX
8
1
10
25.96268
20
9.101506
0
SEQEND
8
1
0
POLYLINE
8
1
62
7
70
1
66
1
40
0
41
0
0
VERTEX
8
1
10
25.96268
20
6.101506
0
VERTEX
8
1
10
25.96268
20
6.495206
0
VERTEX
8
1
10
25.56898
20
6.495206
0
VERTEX
8
1
10
25.56898
20
6.101506
0
SEQEND
8
1
0
POLYLINE
8
1
62
7
70
1
66
1
40
0
41
0
0
VERTEX
8
1
10
25.96268
20
6.495206
0
VERTEX
8
1
10
25.56898
20
6.495206
0
VERTEX
8
1
10
25.56898
20
6.101506
0
VERTEX
8
1
10
25.96268
20
6.101506
0
SEQEND
8
1
0
POLYLINE
8
1
62
7
70
1
66
1
40
0
41
0
0
VERTEX
8
1
10
25.96268
20
7.851506
0
VERTEX
8
1
10
25.96268
20
8.245206
0
VERTEX
8
1
10
25.56898
20
8.245206
0
VERTEX
8
1
10
25.56898
20
7.851506
0
SEQEND
8
1
0
POLYLINE
8
1
62
7
70
1
66
1
40
0
41
0
0
VERTEX
8
1
10
25.96268
20
8.245206
0
VERTEX
8
1
10
25.56898
20
8.245206
0
VERTEX
8
1
10
25.56898
20
7.851506
0
VERTEX
8
1
10
25.96268
20
7.851506
0
SEQEND
8
1
0
INSERT
8
1
2
SKETCH-G9
10
0
20
0
0
POLYLINE
8
1
62
7
70
1
66
1
40
0
41
0
0
VERTEX
8
1
10
25.96268
20
7.351506
0
VERTEX
8
1
10
25.96268
20
7.745206
0
VERTEX
8
1
10
25.56898
20
7.745206
0
VERTEX
8
1
10
25.56898
20
7.351506
0
SEQEND
8
1
0
POLYLINE
8
1
62
7
70
1
66
1
40
0
41
0
0
VERTEX
8
1
10
25.96268
20
7.745206
0
VERTEX
8
1
10
25.56898
20
7.745206
0
VERTEX
8
1
10
25.56898
20
7.351506
0
VERTEX
8
1
10
25.96268
20
7.351506
0
SEQEND
8
1
0
CIRCLE
8
1
62
7
10
25.76583
20
9.798357
40
0.1875
0
INSERT
8
1
2
SKETCH-G10
10
0
20
0
0
POLYLINE
8
1
62
7
70
1
66
1
40
0
41
0
0
VERTEX
8
1
10
24.36526
20
18.29836
0
VERTEX
8
1
10
25.46785
20
18.29836
0
VERTEX
8
1
10
25.46785
20
13.0517
0
VERTEX
8
1
10
25.27105
20
13.0517
0
VERTEX
8
1
10
24.36526
20
14.437
0
SEQEND
8
1
0
INSERT
8
1
2
SKETCH-G11
10
0
20
0
0
LINE
8
1
62
7
10
24.36526
20
18.29836
11
24.36526
21
14.437
0
LINE
8
1
62
7
10
23.96333
20
15.3017
11
23.96333
21
15.8017
0
LINE
8
1
62
7
10
25.46785
20
18.29836
11
25.46785
21
13.0517
0
LINE
8
1
62
7
10
25.52583
20
10.44586
11
25.76583
21
10.48586
0
LINE
8
1
62
7
10
25.52583
20
10.52586
11
25.76583
21
10.48586
0
LINE
8
1
62
7
10
26.10958
20
11.0717
11
26.10958
21
12.1017
0
LINE
8
1
62
7
10
25.86958
20
11.9117
11
26.10958
21
11.9517
0
LINE
8
1
62
7
10
25.86958
20
11.9917
11
26.10958
21
11.9517
0
LINE
8
1
62
7
10
23.96333
20
15.0517
11
25.27105
21
13.0517
0
POLYLINE
8
1
62
7
70
1
66
1
40
0
41
0
0
VERTEX
8
1
10
25.56898
20
14.85151
0
VERTEX
8
1
10
25.56898
20
15.24521
0
VERTEX
8
1
10
25.96268
20
15.24521
0
VERTEX
8
1
10
25.96268
20
14.85151
0
SEQEND
8
1
0
POLYLINE
8
1
62
7
70
1
66
1
40
0
41
0
0
VERTEX
8
1
10
25.56898
20
13.10151
0
VERTEX
8
1
10
25.56898
20
13.49521
0
VERTEX
8
1
10
25.96268
20
13.49521
0
VERTEX
8
1
10
25.96268
20
13.10151
0
SEQEND
8
1
0
POLYLINE
8
1
62
7
70
1
66
1
40
0
41
0
0
VERTEX
8
1
10
25.56898
20
14.35151
0
VERTEX
8
1
10
25.56898
20
14.74521
0
VERTEX
8
1
10
25.96268
20
14.74521
0
VERTEX
8
1
10
25.96268
20
14.35151
0
SEQEND
8
1
0
POLYLINE
8
1
62
7
70
1
66
1
40
0
41
0
0
VERTEX
8
1
10
25.56898
20
15.24521
0
VERTEX
8
1
10
25.96268
20
15.24521
0
VERTEX
8
1
10
25.96268
20
14.85151
0
VERTEX
8
1
10
25.56898
20
14.85151
0
SEQEND
8
1
0
INSERT
8
1
2
SKETCH-G12
10
0
20
0
0
POLYLINE
8
1
62
7
70
1
66
1
40
0
41
0
0
VERTEX
8
1
10
25.56898
20
14.74521
0
VERTEX
8
1
10
25.96268
20
14.74521
0
VERTEX
8
1
10
25.96268
20
14.35151
0
VERTEX
8
1
10
25.56898
20
14.35151
0
SEQEND
8
1
0
POLYLINE
8
1
62
7
70
1
66
1
40
0
41
0
0
VERTEX
8
1
10
25.56898
20
13.49521
0
VERTEX
8
1
10
25.96268
20
13.49521
0
VERTEX
8
1
10
25.96268
20
13.10151
0
VERTEX
8
1
10
25.56898
20
13.10151
0
SEQEND
8
1
0
CIRCLE
8
1
62
7
10
25.76583
20
12.79836
40
0.1875
0
INSERT
8
1
2
SKETCH-G13
10
0
20
0
0
LINE
8
1
62
7
10
24.3914
20
20.71141
11
26.35958
21
19.29836
0
LINE
8
1
62
7
10
23.72317
20
15.71601
11
23.96333
21
15.6767
0
LINE
8
1
62
7
10
23.96333
20
15.6767
11
23.72317
21
15.63585
0
ARC
8
1
62
7
10
24.33308
20
20.63017
40
0.1
50
54.3236
51
90
0
POLYLINE
8
1
62
7
70
1
66
1
40
0
41
0
0
VERTEX
8
1
10
25.56898
20
16.60151
0
VERTEX
8
1
10
25.56898
20
16.99521
0
VERTEX
8
1
10
25.96268
20
16.99521
0
VERTEX
8
1
10
25.96268
20
16.60151
0
SEQEND
8
1
0
POLYLINE
8
1
62
7
70
1
66
1
40
0
41
0
0
VERTEX
8
1
10
25.56898
20
16.10151
0
VERTEX
8
1
10
25.56898
20
16.49521
0
VERTEX
8
1
10
25.96268
20
16.49521
0
VERTEX
8
1
10
25.96268
20
16.10151
0
SEQEND
8
1
0
POLYLINE
8
1
62
7
70
1
66
1
40
0
41
0
0
VERTEX
8
1
10
25.56898
20
16.99521
0
VERTEX
8
1
10
25.56898
20
16.60151
0
VERTEX
8
1
10
25.96268
20
16.60151
0
VERTEX
8
1
10
25.96268
20
16.99521
0
SEQEND
8
1
0
POLYLINE
8
1
62
7
70
1
66
1
40
0
41
0
0
VERTEX
8
1
10
25.56898
20
16.49521
0
VERTEX
8
1
10
25.96268
20
16.49521
0
VERTEX
8
1
10
25.96268
20
16.10151
0
VERTEX
8
1
10
25.56898
20
16.10151
0
SEQEND
8
1
0
POLYLINE
8
1
62
7
70
1
66
1
40
0
41
0
0
VERTEX
8
1
10
25.56898
20
17.85151
0
VERTEX
8
1
10
25.56898
20
18.24521
0
VERTEX
8
1
10
25.96268
20
18.24521
0
VERTEX
8
1
10
25.96268
20
17.85151
0
SEQEND
8
1
0
POLYLINE
8
1
62
7
70
1
66
1
40
0
41
0
0
VERTEX
8
1
10
25.56898
20
17.85151
0
VERTEX
8
1
10
25.96268
20
17.85151
0
VERTEX
8
1
10
25.96268
20
18.24521
0
VERTEX
8
1
10
25.56898
20
18.24521
0
SEQEND
8
1
0
INSERT
8
1
2
SKETCH-G14
10
0
20
0
0
LINE
8
1
62
7
6
DOT
10
25.98401
20
22.42768
11
13.98401
21
22.42768
0
LINE
8
1
62
7
6
DOT
10
23.48401
20
24.17768
11
13.98401
21
24.17768
0
LINE
8
1
62
7
6
DOT
10
20.96655
20
25.91572
11
13.96655
21
25.91572
0
TEXT
8
1
62
7
40
0.3
50
90
1
0.25"
7
txt
72
0
10
13.83401
20
30.52768
0
LINE
8
1
62
7
10
14.024
20
31.41768
11
13.98401
21
31.17768
0
LINE
8
1
62
7
10
13.94401
20
31.41768
11
13.98401
21
31.17768
0
LINE
8
1
62
7
6
DOT
10
18.48401
20
27.67768
11
13.98401
21
27.67768
0
LINE
8
1
62
7
10
15.98401
20
29.42768
11
17.68401
21
29.42768
0
TEXT
8
1
62
7
40
0.3
50
90
1
1.25"
7
txt
72
0
10
17.05276
20
29.80268
0
LINE
8
1
62
7
10
15.98401
20
31.17768
11
17.68401
21
31.17768
0
LINE
8
1
62
7
10
15.52574
20
31.17768
11
15.52574
21
21.17767
0
LINE
8
1
62
7
10
14.63401
20
31.17768
11
14.63401
21
21.17767
0
POLYLINE
8
1
62
7
70
1
66
1
40
0
41
0
0
VERTEX
8
1
10
15.03091
20
25.98083
0
VERTEX
8
1
10
15.03091
20
26.37453
0
VERTEX
8
1
10
15.42461
20
26.37453
0
VERTEX
8
1
10
15.42461
20
25.98083
0
SEQEND
8
1
0
LINE
8
1
62
7
10
15.03091
20
26.37453
11
15.42461
21
25.98083
0
LINE
8
1
62
7
10
15.03091
20
25.98083
11
15.42461
21
26.37453
0
POLYLINE
8
1
62
7
70
1
66
1
40
0
41
0
0
VERTEX
8
1
10
15.03091
20
21.98082
0
VERTEX
8
1
10
15.03091
20
22.37453
0
VERTEX
8
1
10
15.42461
20
22.37453
0
VERTEX
8
1
10
15.42461
20
21.98082
0
SEQEND
8
1
0
LINE
8
1
62
7
10
15.03091
20
21.98082
11
15.42461
21
22.37453
0
LINE
8
1
62
7
10
15.03091
20
22.37453
11
15.42461
21
21.98082
0
POLYLINE
8
1
62
7
70
1
66
1
40
0
41
0
0
VERTEX
8
1
10
15.03091
20
22.48082
0
VERTEX
8
1
10
15.03091
20
22.87453
0
VERTEX
8
1
10
15.42461
20
22.87453
0
VERTEX
8
1
10
15.42461
20
22.48082
0
SEQEND
8
1
0
LINE
8
1
62
7
10
15.03091
20
22.87453
11
15.42461
21
22.48082
0
LINE
8
1
62
7
10
15.03091
20
22.48082
11
15.42461
21
22.87453
0
POLYLINE
8
1
62
7
70
1
66
1
40
0
41
0
0
VERTEX
8
1
10
15.03091
20
23.73082
0
VERTEX
8
1
10
15.03091
20
24.12453
0
VERTEX
8
1
10
15.42461
20
24.12453
0
VERTEX
8
1
10
15.42461
20
23.73082
0
SEQEND
8
1
0
LINE
8
1
62
7
10
15.03091
20
24.12453
11
15.42461
21
23.73082
0
LINE
8
1
62
7
10
15.42461
20
24.12453
11
15.03091
21
23.73082
0
POLYLINE
8
1
62
7
70
1
66
1
40
0
41
0
0
VERTEX
8
1
10
15.03091
20
24.23082
0
VERTEX
8
1
10
15.03091
20
24.62453
0
VERTEX
8
1
10
15.42461
20
24.62453
0
VERTEX
8
1
10
15.42461
20
24.23082
0
SEQEND
8
1
0
LINE
8
1
62
7
10
15.03091
20
24.62453
11
15.42461
21
24.23082
0
LINE
8
1
62
7
10
15.42461
20
24.62453
11
15.03091
21
24.23082
0
POLYLINE
8
1
62
7
70
1
66
1
40
0
41
0
0
VERTEX
8
1
10
15.03091
20
25.48083
0
VERTEX
8
1
10
15.03091
20
25.87453
0
VERTEX
8
1
10
15.42461
20
25.87453
0
VERTEX
8
1
10
15.42461
20
25.48083
0
SEQEND
8
1
0
LINE
8
1
62
7
10
15.03091
20
25.48083
11
15.42461
21
25.87453
0
LINE
8
1
62
7
10
15.03091
20
25.87453
11
15.42461
21
25.48083
0
LINE
8
1
62
7
10
16.60276
20
29.67768
11
16.60276
21
30.92768
0
LINE
8
1
62
7
10
16.22276
20
29.67768
11
16.75276
21
29.67768
0
LINE
8
1
62
7
10
16.22276
20
30.92768
11
16.75276
21
30.92768
0
LINE
8
1
62
7
10
16.64276
20
29.91768
11
16.60276
21
29.67768
0
LINE
8
1
62
7
10
16.56276
20
29.91768
11
16.60276
21
29.67768
0
LINE
8
1
62
7
10
16.64276
20
30.68768
11
16.60276
21
30.92768
0
LINE
8
1
62
7
10
16.56276
20
30.68768
11
16.60276
21
30.92768
0
POLYLINE
8
1
62
7
70
1
66
1
40
0
41
0
0
VERTEX
8
1
10
15.03091
20
27.73083
0
VERTEX
8
1
10
15.03091
20
28.12453
0
VERTEX
8
1
10
15.42461
20
28.12453
0
VERTEX
8
1
10
15.42461
20
27.73083
0
SEQEND
8
1
0
LINE
8
1
62
7
10
15.03091
20
28.12453
11
15.42461
21
27.73083
0
LINE
8
1
62
7
10
15.42461
20
28.12453
11
15.03091
21
27.73083
0
POLYLINE
8
1
62
7
70
1
66
1
40
0
41
0
0
VERTEX
8
1
10
15.03091
20
27.23083
0
VERTEX
8
1
10
15.03091
20
27.62453
0
VERTEX
8
1
10
15.42461
20
27.62453
0
VERTEX
8
1
10
15.42461
20
27.23083
0
SEQEND
8
1
0
LINE
8
1
62
7
10
15.03091
20
27.62453
11
15.42461
21
27.23083
0
LINE
8
1
62
7
10
15.42461
20
27.62453
11
15.03091
21
27.23083
0
CIRCLE
8
1
62
7
10
16.22776
20
30.92768
40
0.125
0
CIRCLE
8
1
62
7
10
16.22776
20
29.67768
40
0.125
0
LINE
8
1
62
7
6
DOT
10
15.98401
20
29.42768
11
13.98401
21
29.42768
0
ARC
8
1
62
7
10
15.98401
20
29.52768
40
0.1
50
180
51
270
0
POLYLINE
8
1
62
7
70
1
66
1
40
0
41
0
0
VERTEX
8
1
10
15.03091
20
29.48083
0
VERTEX
8
1
10
15.03091
20
29.87453
0
VERTEX
8
1
10
15.42461
20
29.87453
0
VERTEX
8
1
10
15.42461
20
29.48083
0
SEQEND
8
1
0
LINE
8
1
62
7
10
15.03091
20
29.87453
11
15.42461
21
29.48083
0
LINE
8
1
62
7
10
15.03091
20
29.48083
11
15.42461
21
29.87453
0
POLYLINE
8
1
62
7
70
1
66
1
40
0
41
0
0
VERTEX
8
1
10
15.03091
20
28.98083
0
VERTEX
8
1
10
15.03091
20
29.37453
0
VERTEX
8
1
10
15.42461
20
29.37453
0
VERTEX
8
1
10
15.42461
20
28.98083
0
SEQEND
8
1
0
LINE
8
1
62
7
10
15.03091
20
28.98083
11
15.42461
21
29.37453
0
LINE
8
1
62
7
10
15.03091
20
29.37453
11
15.42461
21
28.98083
0
LINE
8
1
62
7
10
15.88401
20
31.07767
11
15.88401
21
29.52768
0
LINE
8
1
62
7
6
DOT
10
15.98401
20
31.17768
11
13.98401
21
31.17768
0
ARC
8
1
62
7
10
15.98401
20
31.07767
40
0.1
50
90
51
180
0
POLYLINE
8
1
62
7
70
1
66
1
40
0
41
0
0
VERTEX
8
1
10
15.03091
20
30.73083
0
VERTEX
8
1
10
15.03091
20
31.12453
0
VERTEX
8
1
10
15.42461
20
31.12453
0
VERTEX
8
1
10
15.42461
20
30.73083
0
SEQEND
8
1
0
LINE
8
1
62
7
10
15.03091
20
31.12453
11
15.42461
21
30.73083
0
LINE
8
1
62
7
10
15.42461
20
31.12453
11
15.03091
21
30.73083
0
LINE
8
1
62
7
10
14.63401
20
31.17768
11
15.52574
21
31.17768
0
LINE
8
1
62
7
10
13.98401
20
30.92768
11
13.98401
21
31.17768
0
LINE
8
1
62
7
10
15.10776
20
30.92768
11
13.83401
21
30.92768
0
LINE
8
1
62
7
10
15.10776
20
31.17768
11
13.83401
21
31.17768
0
LINE
8
1
62
7
10
14.024
20
30.68768
11
13.98401
21
30.92768
0
LINE
8
1
62
7
10
13.94401
20
30.68768
11
13.98401
21
30.92768
0
LINE
8
1
62
7
10
18.38401
20
31.07767
11
18.38401
21
27.77768
0
TEXT
8
1
62
7
40
0.3
50
90
1
3.00"
7
txt
72
0
10
19.55276
20
28.92768
0
LINE
8
1
62
7
10
19.10276
20
27.92768
11
19.10276
21
30.92768
0
LINE
8
1
62
7
10
18.72276
20
27.92768
11
19.25276
21
27.92768
0
LINE
8
1
62
7
10
18.72276
20
30.92768
11
19.25276
21
30.92768
0
LINE
8
1
62
7
10
19.14276
20
28.16768
11
19.10276
21
27.92768
0
LINE
8
1
62
7
10
19.06276
20
28.16768
11
19.10276
21
27.92768
0
LINE
8
1
62
7
10
19.14276
20
30.68768
11
19.10276
21
30.92768
0
LINE
8
1
62
7
10
19.06276
20
30.68768
11
19.10276
21
30.92768
0
TEXT
8
1
62
7
6
DOT
40
0.3
50
90
1
76.2 mm
7
ROMANS
72
1
10
20.07353
20
28.36762
11
20.07353
21
29.39619
0
LINE
8
1
62
7
10
18.48401
20
27.67768
11
20.18401
21
27.67768
0
CIRCLE
8
1
62
7
10
18.72776
20
27.92768
40
0.125
0
ARC
8
1
62
7
10
18.48401
20
27.77768
40
0.1
50
180
51
270
0
CIRCLE
8
1
62
7
10
18.72776
20
30.92768
40
0.125
0
LINE
8
1
62
7
10
18.48401
20
31.17768
11
20.18401
21
31.17768
0
ARC
8
1
62
7
10
18.48401
20
31.07767
40
0.1
50
90
51
180
0
TEXT
8
1
62
7
40
0.3
1
1 RU
7
ROMANS
72
0
10
16.09038
20
31.45995
0
TEXT
8
1
62
7
40
0.3
1
2 RU
7
ROMANS
72
0
10
18.59038
20
31.45995
0
LINE
8
1
62
7
10
23.48401
20
24.17768
11
25.18401
21
24.17768
0
LINE
8
1
62
7
10
23.48401
20
31.17768
11
25.18401
21
31.17768
0
LINE
8
1
62
7
10
20.88401
20
31.07767
11
20.88401
21
26.01419
0
LINE
8
1
62
7
10
23.38401
20
31.07767
11
23.38401
21
24.27768
0
LINE
8
1
62
7
10
20.98401
20
25.91419
11
22.68401
21
25.91419
0
ARC
8
1
62
7
10
20.98401
20
26.01419
40
0.1
50
180
51
270
0
ARC
8
1
62
7
10
23.48401
20
24.27768
40
0.1
50
180
51
270
0
TEXT
8
1
62
7
40
0.3
50
90
1
2.25"
7
txt
72
0
10
22.05276
20
28.00268
0
LINE
8
1
62
7
10
21.60276
20
27.42768
11
21.60276
21
29.67768
0
LINE
8
1
62
7
10
21.22276
20
27.42768
11
21.75276
21
27.42768
0
LINE
8
1
62
7
10
21.22276
20
29.67768
11
21.75276
21
29.67768
0
LINE
8
1
62
7
10
21.64276
20
27.66768
11
21.60276
21
27.42768
0
LINE
8
1
62
7
10
21.56276
20
27.66768
11
21.60276
21
27.42768
0
LINE
8
1
62
7
10
21.64276
20
29.43768
11
21.60276
21
29.67768
0
LINE
8
1
62
7
10
21.56276
20
29.43768
11
21.60276
21
29.67768
0
CIRCLE
8
1
62
7
10
21.22776
20
27.42768
40
0.125
0
CIRCLE
8
1
62
7
10
21.22776
20
29.67768
40
0.125
0
LINE
8
1
62
7
10
20.98401
20
31.17768
11
22.68401
21
31.17768
0
TEXT
8
1
62
7
40
0.3
50
90
1
1.50"
7
txt
72
0
10
22.05276
20
29.95268
0
LINE
8
1
62
7
10
21.60276
20
29.67768
11
21.60276
21
31.17768
0
LINE
8
1
62
7
10
21.22276
20
29.67768
11
21.75276
21
29.67768
0
LINE
8
1
62
7
10
21.22276
20
31.17768
11
21.75276
21
31.17768
0
LINE
8
1
62
7
10
21.64276
20
29.91768
11
21.60276
21
29.67768
0
LINE
8
1
62
7
10
21.56276
20
29.91768
11
21.60276
21
29.67768
0
LINE
8
1
62
7
10
21.64276
20
30.93768
11
21.60276
21
31.17768
0
LINE
8
1
62
7
10
21.56276
20
30.93768
11
21.60276
21
31.17768
0
ARC
8
1
62
7
10
20.98401
20
31.07767
40
0.1
50
90
51
180
0
TEXT
8
1
62
7
6
DOT
40
0.3
50
90
1
57.15 mm
7
ROMANS
72
1
10
22.56509
20
27.32399
11
22.56509
21
28.49542
0
ARC
8
1
62
7
10
23.48401
20
31.07767
40
0.1
50
90
51
180
0
LINE
8
1
62
7
10
25.88401
20
31.07768
11
25.88401
21
22.52768
0
LINE
8
1
62
7
10
24.10276
20
25.67768
11
24.10276
21
29.67768
0
LINE
8
1
62
7
10
26.60276
20
23.92767
11
26.60276
21
29.67768
0
ARC
8
1
62
7
10
25.98401
20
22.52768
40
0.1
50
180
51
270
0
LINE
8
1
62
7
10
23.72276
20
25.67768
11
24.25276
21
25.67768
0
LINE
8
1
62
7
10
24.14276
20
25.91768
11
24.10276
21
25.67768
0
LINE
8
1
62
7
10
24.06276
20
25.91768
11
24.10276
21
25.67768
0
CIRCLE
8
1
62
7
10
23.72776
20
25.67768
40
0.125
0
LINE
8
1
62
7
10
26.22276
20
23.92767
11
26.75276
21
23.92767
0
LINE
8
1
62
7
10
26.64276
20
24.16767
11
26.60276
21
23.92767
0
LINE
8
1
62
7
10
26.56276
20
24.16767
11
26.60276
21
23.92767
0
CIRCLE
8
1
62
7
10
26.22776
20
23.92768
40
0.125
0
TEXT
8
1
62
7
40
0.3
50
90
1
4.00"
7
txt
72
0
10
24.55276
20
27.17768
0
LINE
8
1
62
7
10
23.72276
20
29.67768
11
24.25276
21
29.67768
0
LINE
8
1
62
7
10
24.14276
20
29.43768
11
24.10276
21
29.67768
0
LINE
8
1
62
7
10
24.06276
20
29.43768
11
24.10276
21
29.67768
0
TEXT
8
1
62
7
6
DOT
40
0.3
50
90
1
101.6 mm
7
ROMANS
72
1
10
25.12137
20
26.58618
11
25.12137
21
27.73618
0
CIRCLE
8
1
62
7
10
23.72776
20
29.67768
40
0.125
0
TEXT
8
1
62
7
40
0.3
50
90
1
1.50"
7
txt
72
0
10
24.55276
20
29.95267
0
LINE
8
1
62
7
10
24.10276
20
29.67768
11
24.10276
21
31.17768
0
LINE
8
1
62
7
10
23.72276
20
29.67768
11
24.25276
21
29.67768
0
LINE
8
1
62
7
10
23.72276
20
31.17768
11
24.25276
21
31.17768
0
LINE
8
1
62
7
10
24.14276
20
29.91768
11
24.10276
21
29.67768
0
LINE
8
1
62
7
10
24.06276
20
29.91768
11
24.10276
21
29.67768
0
LINE
8
1
62
7
10
24.14276
20
30.93768
11
24.10276
21
31.17768
0
LINE
8
1
62
7
10
24.06276
20
30.93768
11
24.10276
21
31.17768
0
LINE
8
1
62
7
10
26.22276
20
29.67768
11
26.75276
21
29.67768
0
LINE
8
1
62
7
10
26.64276
20
29.43768
11
26.60276
21
29.67768
0
LINE
8
1
62
7
10
26.56276
20
29.43768
11
26.60276
21
29.67768
0
CIRCLE
8
1
62
7
10
26.22776
20
29.67768
40
0.125
0
ARC
8
1
62
7
10
25.98401
20
31.07768
40
0.1
50
90
51
180
0
LINE
8
1
62
7
10
26.60276
20
29.67768
11
26.60276
21
31.17768
0
LINE
8
1
62
7
10
26.22276
20
29.67768
11
26.75276
21
29.67768
0
LINE
8
1
62
7
10
26.22276
20
31.17768
11
26.75276
21
31.17768
0
LINE
8
1
62
7
10
26.64276
20
29.91768
11
26.60276
21
29.67768
0
LINE
8
1
62
7
10
26.56276
20
29.91768
11
26.60276
21
29.67768
0
LINE
8
1
62
7
10
26.64276
20
30.93768
11
26.60276
21
31.17768
0
LINE
8
1
62
7
10
26.56276
20
30.93768
11
26.60276
21
31.17768
0
TEXT
8
1
62
7
40
0.3
1
3 RU
7
ROMANS
72
0
10
21.09038
20
31.45995
0
TEXT
8
1
62
7
40
0.3
1
4 RU
7
ROMANS
72
0
10
23.59038
20
31.45995
0
ENDSEC
0
EOF
